música
Buscador

Acorde de Crimson Day - Avenged Sevenfold

Letra de Crimson Day

KEY: G 



Intro: Em D G C Am D Em





E|---------------------------------------------------------------------------------|

B|-------------3-------3-------5------------5-----------5---------------3-------5--|

G|-----------2---2---------------5--------5---5-----------7-----------4-------4----|

D|-----5---4---------5---5---5-----5------------5-----5-----5-----2-5-----2-5------|

A|---7---7-----------------3---------3--0---------7-7---------7--------------------|

E|-0---------------3--------------------------------------------0------------------|





/*clean guitar*/

Em D/F# G C

Darkness brought endless rain,

Am D Em

out in the cold I lost my way,

Em D/F# G C

but storms won't last to clear the air, for something new,

Am D Em

the sun came out and brought you through,



Am Em

a lifetime full of words to say,

D C

I hope that time will slow the passing day.



/*distorted guitar*/

Em D/F# G G/B



C G

I've been wrong times over,

C G

and I've been shamed with no words to find,

Bm Em D

but if the sun will rise, bring us tomorrow,

C G/B Am Am/G D

walk with me, crimson day.



(G/C G/B D/A)

(G D/F#)



/*clean guitar*/

Em D/F# G C

Don't speak, no use for words,

Am D Em

lie in my arms sleep secure,

Em D/F# G C

I wonder what you're dreaming of, lands rare and far,

Am D Em

a time must fly to reach the stars,



Am Em

a lifetime full of words to say,

D C

I hope that time will slow the passing day.



/*distorted guitar*/

Em D/F# G G/B



C G

I've been wrong times over,

C G

and I've been shamed with no words to find,

Bm Em D

but if the sun will rise, bring us tomorrow,

C G/B Am Am/G D

walk with me, crimson day.



(G/C G/B D/A)





Solo: C Em (x4)

----------------------------------------------------12-14-15-|

-------------------------------------------12-14-15----------|

----------11-12-14-12-11----------12-14-16-------------------|

-------14----------------12-14-16----------------------------|

-------------------------------------------------------------|

-------------------------------------------------------------|







H E Q E H Q E E

--15--------L--14b----L--|--14--------L----12--10--|

-------------------------|-------------------------|

-------------------------|-------------------------|

-------------------------|-------------------------|

-------------------------|-------------------------|

-------------------------|-------------------------|







E E E H S S S E S Q E E E E

--12--14--15--12--------10---|--10-12--L-L----12--------------|

-----------------------------|--------------------12--12--15--|

-----------------------------|--------------------------------|

-----------------------------|--------------------------------|

-----------------------------|--------------------------------|

-----------------------------|--------------------------------|







Q E Q E E E Q E Q E E E

-----------------------------|----------------------------|

--15----13--13----L--12--12--|--L----10--10----L--8--10b--|

-----------------------------|----------------------------|

-----------------------------|----------------------------|

-----------------------------|----------------------------|

-----------------------------|----------------------------|



http://www.coveralia.com/acordes/crimson-day-avenged-sevenfold.php



|----3---| |----3---| |-3-|

H E E E E E E E Q E S S Q E S S



-----------10---L---10---L---10---L---|--10---L-----L------------------|

--L------------10b---L--10b---L--10b--|---L--10b----L--8---------------|

--------------------------------------|------------------7-9----L------|

--------------------------------------|----------------------------7-9-|

--------------------------------------|--------------------------------|

--------------------------------------|--------------------------------|





Q E Q E E E Q E Q E S E S



-------------------------|----------------------------|

-------------------8--7--|--L----8--10----12----10----|

--------7--9----L--------|----------------------------|

--10---------------------|----------------------------|

-------------------------|----------------------------|

-------------------------|----------------------------|





|--3--|

S S Q S S S E. E. E H Q E S S



------------14-15-17-19---17---15--|--------------------------|

--8-10-8---------------------------|--17--------L----L--12-13-|

-----------------------------------|--------------------------|

-----------------------------------|--------------------------|

-----------------------------------|--------------------------|

-----------------------------------|--------------------------|







Q E Q E E E Q E Q E E E

-----------------------------|----------------------------|

--15----13--13----L--12--12--|--L----10--10----L--8--10b--|

-----------------------------|----------------------------|

-----------------------------|----------------------------|

-----------------------------|----------------------------|

-----------------------------|----------------------------|





|----3---| |----3---| |-3-|

H E E E E E E E Q E S S H



-----------10---L---10---L---10---L---|--10---L-----L---------------|

--L------------10b---L--10b---L--10b--|---L--10b----L--8------------|

--------------------------------------|------------------7-9--------|

--------------------------------------|-----------------------------|

--------------------------------------|-----------------------------|

--------------------------------------|-----------------------------|





/*clean guitar*/

Am Em

I've come so far to meet you here,

D C

to share this life with the one I hold so dear,

Am Em

and I won't speak but what is true,

D C

the world outside created just for you,

D C

is for you, for you...



|-----------------------------------------------12-|

|-----------------------------------------12-15----|

|--------------12-14-12-------------12-14----------|

|--------12-14----------14----12-14----------------|

|--12-15-------------------15----------------------|

|--------------------------------------------------|







H E Q E H Q E E E H Q E

--14--------L--/14----L--|--/14--------L----14--12--|--14--14--------L----L--|

-------------------------|--------------------------|------------------------|

-------------------------|--------------------------|------------------------|

-------------------------|--------------------------|------------------------|

-------------------------|--------------------------|------------------------|

-------------------------|--------------------------|------------------------|





H Q E E W



-----------------12--14--|--15----------------|-------------------|

--15--------L------------|--------------------|-------------------|

-------------------------|--------------------|-------------------|

-------------------------|--------------------|-------------------|

-------------------------|--------------------|-------------------|

-------------------------|--------------------|-------------------|





/*distorted guitar*/

C G

I've been wrong times over,

C G

and I've been shamed with no words to find,

Bm Em D

but if the sun will rise, bring us tomorrow,

C G/B Am Am/G D

walk with me, crimson day.



(G/C G/B D/A)

(C G)







Letra subida por: Anónimo

Discos en los que aparece este acorde: Hail To The King , Hail To The King (Deluxe Edition)

El acorde de Crimson Day de Avenged Sevenfold es una versión de la canción original realizada por colaboradores/usuarios de Coveralia.

¿Has encontrado algún error en esta página? Envíanos tu corrección del acorde