música
Buscador

Acorde de Crash Into Me - Dave Matthews Band

Letra de Crash Into Me

Intro 2x: C#m7 A5(9) B4 E5 E/G# A5(9) B4 E5 



Primeira parte:

C#m7 A5(9)

You've got your ball

B4 E5

You've got your chain

E/G# A5(9) B4 E5

Tied to me tight, tie me up again



C#m7 A5(9) B4 E5

Who's got their claws in you my friend?

E/G# A5(9) B4 E5

Into your heart I'll beat again

C#m7 A5(9) B4 E5

Sweet like candy to my soul

E/G# A5(9) B4 E5

Sweet you rock, and sweet you roll

C#m7 A5(9) B4 E5 E/G#

Lost for you, I'm so lost for you



( A5(9) B4 E5 )



Refrão:



* Arranjo para violão na parte "In a boy's dream.."

C#m7

-0--0-2--0-0-0---0--0-2--0-0-0------------

-5--5-5--5-5-5---5--5-5--5-5-5------------

-4--4-4--4-4-4---4--4-4--4-4-4------------

-x--x-x--x-x-x---x--x-x--x-x-x------------

-4--4-4--4-4-4---4--4-4--4-4-4------------

------------------------------------------



A5(9) B4

-0--0-2--0-0-0---0--0-2--0-0-0------------

-5--5-5--5-5-5---5--5-5--5-5-5------------

-4--4-4--4-4-4---4--4-4--4-4-4------------

-2--2-2--2-2-2---2--2-2--2-2-2------------

-0--0-0--0-0-0---0--0-2--2-2-2------------

------------------------------------------



E5 E/G#

-0--0-2--0-0-0---0--0-2--0-0-0------------

-5--5-5--5-5-5---5--5-5--5-5-5------------

-4--4-4--4-4-4---4--4-4--4-4-4------------

-2--2-2--2-2-2---2--2-2--2-2-2------------

-2--2-2--2-2-2---2--2-x--x-x-x------------

-0--0-0--0-0-0---0--0-4--4-4-4------------



acorde final:



E5

-0--0-0-0--0-0----------------------------

-5--5-5-5--5-5----------------------------

-4--4-4-4--4-4----------------------------

-2--2-2-2--2-2----------------------------

-2--2-2-2--2-2----------------------------

-0--0-0-0--0-0----------------------------





E5 C#m7 E D9/F#

Oh, and you come crash into me

C#m7 A5(9) B4 E5 E/G# A5(9) B4

And I come into you

E5 C#m7 A5(9) B4 E5 E/G# A5(9) B4

I come into you

E5 C#m7

In a boy´ dream

A5(9) B4 E5

In a boy´ dream



( E/G# A5(9) B4 E5 ) (2x)



Continuação:

http://www.coveralia.com/acordes/crash-into-me-dave-matthews-band.php

C#m7 A5(9) B4 E5

Touch your lips just so I know

E/G# A5(9) B4 E5

In your eyes, love, it glows so

C#m7 A5(9) B4 E5 E/G# A5(9) B4 E5

I'm bare-boned and crazy... for you



E5 C#m7 E D9/F#

Oh, and you come crash in__to me

C#m7 A5(9) B4 E5 E/G# A5(9) B4

And I come into you

E5 C#m7 A5(9) B4 E5 E/G# A5(9) B4

I come into you

E5 C#m7

In a boy´ dream

A5(9) B4 E5

In a boy´ dream



( E/G# A5(9) B4 E5 ) (2x)



C#m7 A5(9) B4

If I've gone overboard

E5 E/G# A5(9) B4

Then I'm begging you to forgive me, oh

E5 C#m7

In my haste

A5(9) B4 E5 E/G# A5(9)

When I'm holding you so girl, close to me



E5 C#m7 E

Oh, and you come crash in__to me, yeah

D9/F# C#m7 A5(9) B4 E5 E/G# A5(9) B4 E5

Baby, and I come into you

C#m7 A5(9) B4

Hike up your skirt a little more

E5 E/G# A5(9) B4 E5

And show the world to me

C#m7 A5(9) B4

Hike up your skirt a little more

E5 E/G# A5(9) B4

And show your world to me

E5 C#m7 A5(9) B4

In a boy´ dream...

E5 E/G# A5(9) B4 E5

in a boy´ dream



C#m7 A5(9) B4

Oh, I watch you there through the window

E5

And I stare at you

E/G# A5(9) B4 E5

You wear nothing, but you wear it so well

C#m7 A5(9) B4 E5

Tied up and twisted, the way I'd like to be

E/G# A5(9) B4 C#m7

For you, for me, come crash into me, baby

A5(9) B4 E5 E/G# A5(9) B4 E5

Come crash into me, yeah



E/G# A5(9) B4 E5

Crash into me...

E/G# A5(9) B4 E5

Crash into me...

E/G# A5(9) B4 E5

Crash into me...

E/G# A5(9)

You know, I'm the king of the castle

B4 E5 E/G# A5(9)

You're the dirty rascal, crash into me

B4 E5

Please crash into me, babe



( E/G# A5(9) B4 E5 ) (2x)

Letra subida por: Anónimo

Discos en los que aparece este acorde: Crash , Live In Chicago 12.19.98

El acorde de Crash Into Me de Dave Matthews Band es una versión de la canción original realizada por colaboradores/usuarios de Coveralia.

¿Has encontrado algún error en esta página? Envíanos tu corrección del acorde