música
Buscador

Acorde de Cosas Imposibles - Gustavo Cerati

Letra de Cosas Imposibles

E-----------------------------------------------------

B-----------------------------------------------------

G----------------------------------------------------

D-22222--000--22222--000--22222--000-2-----4-----4---

A-22222--000--22222--000--22222--000-2--2----2------2

E-----------------------------------------------------



(RIFF 1)

D-------4-----4-----------------------------------

A----2----2------2--------------------------------

E-------------------------------------------------





E

Si un amor cayó del cielo

Bm (riff 1)

No pregunto más

E

En mis sueños nunca pierdo

Bm (riff 1)

La oportunidad

E

Ah ah ah ah ah

Bm (riff 1)

ah ah ah ah ah



E

Aunque a veces se equivoquen

Bm (riff 1)

no confundo más

E

voy a hacer que mis cenizas

Bm (riff 1)

vuelvan al papel

E

Ah ah ah ah ah

Bm (riff 1)

ah ah ah ah ah





C#m D

Siempre es hoy

C#m

Ya es parte de mi ser

D

Siempre es hoy

C#m

Lo claro entre los dos

D

Siempre es hoy

C#m

sos parte de mi ser

D

Quiero hacer



cosas imposibles

http://www.coveralia.com/acordes/cosas-imposibles-gustavo-cerati.php



cosas imposibles



(Luego sigue lo siguiente)

/--------------FREE TIME---------------------/

E-----------------------------------------------------

B-----------------------------------------------------

G-----------------------------------------------------

D-22222--000--22222--000--22222--000-222-000----------

A-22222--000--22222--000--22222--000-222-000----------

E-00000--000--00000--000--00000--000-000-000----------





E-0-0-0-0-0-0-0-0-0-0-0-0-0-0-0-0-0-2222222--------

B-0-0-0-0-0-0-0-0-0-0-0-0-0-0-0-0-0-3333333--------

G-1-1-1-1-1-1-1-1-1-1-1-1-1-1-1-1-1-4444444--------

D-2-2-2-2-2-2-2-2-2-2-2-2-2-2-2-2-2-4444444--------

A-2-2-2-2-2-2-2-2-2-2-2-2-2-2-2-2-2-2222222--------

E-0-0-0-0-0-0-0-0-0-0-0-0-0-0-0-0-0-2222222--------

Ah ah ah ah



E

Mutación del porvenir

Bm (riff 1)

es eternidad

E

No me hablen de esperanzas vagas

Bm (riff 1)

persigo realidad

E

Ah ah ah ah ah

Bm (riff 1)

ah ah ah ah ah





C#m D

Siempre es hoy

C#m

Ya es parte de mi ser

D

Siempre es hoy

C#m

Lo claro entre los dos

D

Siempre es hoy

C#m

sos parte de mi ser

D

Quiero hacer



cosas imposibles



cosas imposibles



Se va desvaneciendo en D y C#m!!!

Discos en los que aparece este acorde: Siempre Es Hoy , , Ahi Vamos (Dvd) , Canciones Elegidas 93-04 , Infinito

El acorde de Cosas Imposibles de Gustavo Cerati es una versión de la canción original realizada por colaboradores/usuarios de Coveralia.

¿Has encontrado algún error en esta página? Envíanos tu corrección del acorde