música
Buscador

Acorde de Corre Por Tus Venas - Horcas

Letra de Corre Por Tus Venas

Bajo

g|---------------------------------------+X2--------------------------|

d|--4-3--4-3--4/6--6-6---4-3--4-3--------+----------------------------|

a|--------------------------------6--4-4-+----------------------------|

e|---------------------------------------+-----4-4-4-4---4--6-7-6-4-2-|



Guitarra

e|--------------------------------------------------------------------|

b|--------------------------------------------------------------------|

g|---------------------------------------------------4~---------------|

d|---------------------------------------------------6~---------------|

a|---------------------------------------------------6~---------------|

e|---------------------------------------------4-4-4-4~---------------|







Bajo

g|---------------------------------------------------------------------------|

d|---------------------------------------------------------------------------|

a|-------------6-5-------------------------------4-4-6-7-6-4-----------------|

e|--4-4-4-4--4-----7-6-4---4-4-4-4--4-6-7-6-4-2--------------7--4-4-67-6-4-2-|



Guitarra

http://www.coveralia.com/acordes/corre-por-tus-venas-horcas.php

e|--------------------------------------------------------------|

b|--------------------------------------------------------------|

g|--------4~---------------------4~-----------------------------|

d|--------6~---------------------6~-----------------------------|

a|--------6~---------------------6~-----------------------------|

e|--4-4-4-4~---------------4-4-4-4~-----------------------------|







Bajo

g|-----------------------------------------------------|

d|-----------------------------------------------------|

a|--------6-5-------------------------4-4-6-7-6-4------|

e|--2-4-4-----7-6-2-2/4--4-6-7-6-4-2--------------7-4~-|



Guitarra

e|------------------------------------------------------------------------|

b|------------------------------------------------------------------------|

g|--------------------------------------------------4~~--(Hace el acorde--|

d|--------------------------------------------------6~~-----y--después----|

a|--------------------------------------------------6~~--sube el volumen)-|

e|--------------------------------------------------4~~-------------------|

Letra subida por: Anónimo

Discos en los que aparece este acorde: Oid Mortales El Grito Sangrado

El acorde de Corre Por Tus Venas de Horcas es una versión de la canción original realizada por colaboradores/usuarios de Coveralia.

¿Has encontrado algún error en esta página? Envíanos tu corrección del acorde