música
Buscador

Acorde de Conversacion Nocturna - Los Fabulosos Cadillacs

Letra de Conversacion Nocturna

INTRO: Riffs [1, 1, 2, 2]x2

Tiempo = 106



Am Am

E|-5----5-8-5---5-||-5^3^5--------------||

B|----8-------8---||-------5^3^5--3^1---||

G|----------------||------------------2-||

D|----------------||--------------------||

A|-----Riff-1-----||------Riff-2--------||

E|----------------||--------------------||



Am _

Son las dos de la mañana y no hay luna, |

dejo a los chicos hablando vuelvo a casa, | Estr. 1

y en el camino se dispara una tormenta, |

solamente así descubro lo que pienso _|



C D _

Y el tiempo se va, se va para los dos |

C D |

y si hay que preguntar, seguro preguntaré yo, |

C D | Estr. 2

pero si hay que hablar, seguro hablarás vos, |

C D E/G# |

pero el tiempo se va, se va para los dos... _|



Intermedio:[Riff 3]x2



E|-3-3-3-3-2-2-2-2-1-1-1-1-0-0-0-0-----------||

B|---------------------------------3^5^3^5---||

G|-------------------------------------------||

D|-------------------------------------------||

A|-----------------Riff-3--------------------||

E|-------------------------------------------||



_

http://www.coveralia.com/acordes/conversacion-nocturna-los-fabulosos-cadillacs.php

Y llego A MI casa y las llaves pongo en la puerta, |

pienso en mis amigos, en ella y en mis pensamientos, |

y justo me doy vuelta y en la calle frena un auto | Estr. 1

es ella que se asoma que me mira y se sonríe _|

_

Hombre me equivoqué, la lluvia ni la tocó, |

y si hay que preguntar, seguro preguntaré yo, |

pero si hay que hablar, seguro hablarás vos, | Estr. 2

pero el tiempo se va, se va para los dos... _|



Intermedio: [Riff 3]x2



E|------------------------------------||

B|-/5-/3^1^3^1---------1--------------||

G|-------------2-2^0^2---2-2^0^2-2/14-||

D|------------------------------------|| X2

A|-----------Riff-4-------------------||

E|------------------------------------||



E|-5--5--5-5---5-5-5-5-3-0-0-3-5-3-0-0-3-8-8-5-||

B|-5--5--5-5---5-5-5---------------------------||

G|-5--5--5-5---5-5-5---------------------------||

D|-7--7--7-7---7-7-7---------------------------|| X2

A|---------------------------------------------||

E|--------------------Riff-5-------------------||



_

Hombre me equivoqué, la lluvia ni la tocó |

Y si hay que preguntar, seguro preguntaré yo | Estr. 2

Pero si hay que hablar, seguro hablarás vos |

Y el tiempo se va, se va para los dos _|



Riffs [1, 2, 2]





Letra subida por: Anónimo

Discos en los que aparece este acorde: Obras Cumbres , El Ritmo Mundial , 20 Grandes Exitos , 20 Exitos Originales

El acorde de Conversacion Nocturna de Los Fabulosos Cadillacs es una versión de la canción original realizada por colaboradores/usuarios de Coveralia.

¿Has encontrado algún error en esta página? Envíanos tu corrección del acorde