música
Buscador

Acorde de Coney Island - Mcenroe

Am X6
            C          Em      G           C        Am
Después de ti, construí un refugio de invierno,
            C              Em         G            C       Am
después de ti, error tras error para volver al centro,
            C         Em        G         C       Am
después de ti, me perdí por el camino recto,
         G             Am
de recordar, de no olvidar. X2

     C            G              C
Escuché Coney Island con tus manos por mi espalda,
      C                   G              C
y sentí que el fin del mundo no era una idea tan mala
      Am           G                         C
y que las noches duraban lo mismo que las mañanas.

          C                       G              C
Al escuchar Coney Island con tus manos por mi espalda,
      C                        G              C
y saber que la tristeza tiene su parte de belleza,
      Am           G                         C
y que las noches duraban lo mismo que las mañanas.


e ---------------------------------------------0-
b -------1-------3-----------1-------3-----------
g --0-2-----0-2-----0-2-0-0-2-----0-2-----0-2---

e --10-8-5-3-0-----------0-0-------- --------------------0
b ---------------3-1-3---------3-1-------1-------3---------
g -----------------------------------0-2-----0-2-----0-2---

e -------------------------------0---------
b -3-1-3-1-------1-------3----------3-1-3-1-
g -----------0-2-----0-2-----0-2-------------

e -10-8-5-3-0---------0-0-------- ---------------------0-
b -------------3-1-3---------3-1-------1-----3-----------
g -------------------------------0-2-----0-2 -----0-2-

e -------------------------0-0-3-3-5-3-
b ---------1-0-------0-1-3-------------
g -0-2---------2-0-2-------------------

e -10-8-5-3-0---------0-0-------- -----------------0
b -------------3-1-3-------3-1-------1-----3-------
g -----------------------------0-2-----0-2-----0-2

e -----------------------------0-0-3-3-5-3-
b ---------1-0-----------0-1-3-------------
g -0-2---------2-0-2-----------------------

e --10 -8-5-3-0---------0-0-------- -------------------0
b ---------------3-1-3-------3-1-------1-------3-------
g ---------------------------------0-2-----0-2-----0-2-

e ---------------------------------------0-0-3-3-5-3-
b ---------1-0-----------0-1-3-------------------------
g -0-2---------2-0-2-----------------------------------

e -10-8-5-3-0---------0-0-------- -----------------0 -------
b -------------3-1-3-------3-1-------1-----3---------3-1-3-1
g -----------------------------0-2-----0-2-----0-2 ---------


              C        Em         G            C
...después de ti, construi un refugio de invierno...


Letra subida por: Anónimo

Discos en los que aparece este acorde: Rugen Las Flores

El acorde de Coney Island de Mcenroe es una versión de la canción original realizada por colaboradores/usuarios de Coveralia.

¿Has encontrado algún error en esta página? Envíanos tu corrección del acorde