música
Buscador

Acorde de Como Yo A Ti - Barricada

Letra de Como Yo A Ti

(Introducción)

E|--------------------------------------------------------|

G|--------------------------------------------------------|

B|--------------------------------------------------------|

D|--------------------------------------------------------|

A|--10---8-10--8-10-8-10--8--10---------------------------|

E|--------------------------------------------------------|



(para que se parezca más el sonido bajad el middle, esto se repite

unas cuantas veces y después pasan a hacerlo en quintas)



E|--------------------------------------------------------|

B|--------------------------------------------------------|

G|--------------------------------------------------------|

D|--12---10-12--10-12-10-12--10--12-----------------------|

A|--10----8-10---8-10--8-10---8--10-----------------------|

E|--------------------------------------------------------|



se va repitiendo y



D|--10-10--10-10--10-10---10-10----(10-10-10)-------------|

A|---8--8---8--8---8--8----8--8-----(8--8--8)-------------|



x2 (el paréntesis significa que le deis silenciando la cuerda,

ni apretar ni soltar)



Empieza el verso, en palm muted.



(Los acordes quedan mejor si son en quintas)



G A A# F

Tengo la sensación de que se me escapa sin piedad el último tren

D# F G

y me ha cogido sentado de nuevo en la vía...



D|--12---10-12--10-12-10-12--10--12---10-12-10------------|

A|--10----8-10---8-10--8-10---8--10----8-10--8------------|



G A A# F

Quizá su silbido voló muy fino o el humo se volvió invisible

D# F G

y pasó por mis narices sin olerlo...



D|--12---10-12--10-12-10-12--10--12---10-12-10------------|

A|--10----8-10---8-10--8-10---8--10----8-10--8------------|



G A A# F

Y siento el ruido de la locomotora como un montón de chatarra

D# F G

le doy un corte de mangas mientras se aleja...



D|--12---10-12--10-12-10-12--10--12---10-12-10------------|

A|--10----8-10---8-10--8-10---8--10----8-10--8------------|



Estribillo:



D# A# C G

Los raíles desgastados,

D# A# C G

tantos actos de cordura,

http://www.coveralia.com/acordes/como-yo-a-ti-barricada.php

D# A# C G

los colmillos, amarrados

A A# C

como yo a tí.



D|--12---10-12--10-12-10-12--10--12---10-12-10------------|

A|--10----8-10---8-10--8-10---8--10----8-10--8------------|



(esto último se hace 2 veces)



G A A# F

Intenté buscar sorpresas en el tunel y ofrecerte así el mejor truco

D# F G

pero voy palpando a los que han llegado antes...



D|--12---10-12--10-12-10-12--10--12---10-12-10------------|

A|--10----8-10---8-10--8-10---8--10----8-10--8------------|



G A A# F

Y mientras doy vueltas caigo en la cuenta de que van metiendo a todos

D# F G

en éste negro pozo que no tiene fondo...



D|--12---10-12--10-12-10-12--10--12---10-12-10------------|

A|--10----8-10---8-10--8-10---8--10----8-10--8------------|





D# A# C G

Los raíles desgastados,

D# A# C G

tantos actos de cordura,

D# A# C G

los colmillos, amarrados

A A# C

como yo a tí.



D# A# C G

Los raíles desgastados,

D# A# C G

tantos actos de cordura,

D# A# C G

los colmillos, amarrados

A A# C

como yo a tí.



Pasad a tocar esto en P.M.



..................

G B C



F A A#

··················



Es la rutina, quema la rutina.

Es la rutina, quema cada dia.



(repetidlo unas cuantas veces acompañandolo de esos acordes)



FIN

Discos en los que aparece este acorde: Besame , Latidos Y Mordiscos , Latidos Y Mordiscos , 25 Años De Rocanrol , Besame , Latidos , Latidos

El acorde de Como Yo A Ti de Barricada es una versión de la canción original realizada por colaboradores/usuarios de Coveralia.

¿Has encontrado algún error en esta página? Envíanos tu corrección del acorde