música
Buscador

Acorde de Como Relámpago En La Oscuridad - Logos

Letra de Como Relámpago En La Oscuridad

COMO RELAMPAGO EN LA OSCURIDAD

LOGOS(LA INDUSTRIA DEL PODER)



INTRO



e|---------|

B|---------|

G|---------|

D|---------|

A|--5\0--5-|

E|---------|



e|---------------- ------------- LA 2º --------------

B|---------------- ------------- VEZ --------------

G|-3-2-------------X3 --3--5--2---- ASI --3--5--2--4--

D|-----5-3-2------- --3--5--2---- --3--5--2--4--

A|-----------5-3-5- --1--3--0--5- --1--3--0--2--

E|----------------- ------------- --------------



B G A|-5-4-2-0-2-

Avanza siempre sin cesar y nunca llega

B D A A|-5-4-2-0-2-

Errante en la oscuridad,

B G A|-5-4-2-0-2-

buscando restos del amor que se ha perdido,

B D A

camina hoy la humanidad



F#

Sin



notas que se escuchan de fondo

e|----------------------|

B|----------------------|

G|----------------------| saber a donde va buscando paz

D|--------2---------2---|

A|--2-4-5---5b-4h-5-----|

E|----------------------|



F# G A B

a espaldas de su Dios.



e|------------------

B|------------------

G|------------------X2

D|--5-4-2-----------

A|--------5-4-2-0-2-

E|------------------



B G A|-5-4-2-0-2-

A pesar de que viejos muros fueron derribados

B D A G|--7-7-7p-6h-7-4ap-|

Hay un mundo lleno de maldad

B G A|-5-4-2-0-2-

Que al impulso de su propio vértigo ha caído

B D A F#

En esta ciénaga infernal presa



e|----------------------|

B|----------------------|

G|----------------------| de su propio mal buscando paz

D|--------2---------2---|

A|--2-4-5---5b-4h-5---5-|

E|----------------------|



F# G A D|--4h-5p-4h-5p-4-%%-|

a espaldas de su Dios.





e|------------------

B|------------------

G|------------------X2

D|--5-4-2-----------

A|--------5-4-2-0-2-

E|------------------



E C D E

Miles de hombres se han cerrado a la verdad

C G D

Diciendo que Dios nunca volverá

E C D E

Por que buscaron en el cielo una señal

C G corte 1

Sin antes ver su propio corazón.



corte 1

e|----------------------------| e|-------|

B|----------------------------| B|-------|

G|--4-5-4-2-4-5-4-5-4-2-------| G|-------|

D|--4-5-4-2-4-5-4-5-4-2--1-1--|x4 D|-1-----|

A|----------------------------| A|---2-3-|

E|----------------------------| E|-------|



C B A

Como relámpago en la oscuridad

A

Como relámpago en la noche vendrá

D

Buscando a los que prometió la eternidad

B C B C D

Quienes creyeron en su nombre.



C B A

Como relámpago en la oscuridad

A

Como relámpago en medio de este mar

D

Donde naufragan los que prefieren andar

B C B C D

En la vanidad de sus mentes.



SOLO



sobre |D E x2| C B A B C F B |D E x2| C B A F B



e|----------------------------------------------------|

B|---7ap--5ap-----------------------------------------|

G|----------------------------------------------------|

D|---------------4/5-7-9-7-5-7-9-7-5-7-9-7-5-7-9-7-5--|

A|----------------------------------------------------|

http://www.coveralia.com/acordes/como-relampago-en-la-oscuridad-logos.php

E|----------------------------------------------------|



tapping--------------|

e|----------------------------------------------------|

B|----------------------------------------------------|

G|-5-7-12--5-7-11--x4--4ap--2----------4--5-----------|

D|--------------------------2-%%%%%%%%-4--5--3--------|

A|--------------------------0----------2--3--3-%%%%%--|

E|-------------------------------------------1--------|



e|-------------------------------------------------------------|

B|-------------------------------------------------------------|

G|-------------------------------------------------------------|

D|----------7-9-10-9-7----------------------7h-9-9-10-7-9-6ap--|

A|--7-9-10-------------9-9h-10p-9p-7h-9h-10--------------------|

E|-------------------------------------------------------------|



e|------------------------------------------------------------------------|

B|-12h-13/-17--12h-15--13-12-----12-13-12-13-12-13--------------12-15-13--|

G|-------------------------------------------------14-12--12-14-----------|

D|------------------------------------------------------------------------|

A|------------------------------------------------------------------------|

E|------------------------------------------------------------------------|



tapping a los pedos

e|------------------------12h-14-20--12h-15-19--12h-14-20--12h-15-22-x3--12--|

B|--13h-15-20--13h-15-19-----------------------------------------------------|

G|---------------------------------------------------------------------------|

D|---------------------------------------------------------------------------|

A|---------------------------------------------------------------------------|

E|---------------------------------------------------------------------------|



e|-10-8-7-8-8-7---------7-------|

B|--------------10-8-10---10----|

G|------------------------------|

D|------------------------------|

A|------------------------------|

E|------------------------------|



a los pedos mas o menos asi

e|----------------------------------------------------10-7-9-7-10-7-9-7-10-7-9-7-10-7-9-7-|

B|----------------------------------10-7-9-7-10-7-9-7-------------------------------------|

G|----------------10-7-9-7-10-7-9-7-------------------------------------------------------|

D|---------7-9-10-------------------------------------------------------------------------|

A|--7-9-10--------------------------------------------------------------------------------|

E|----------------------------------------------------------------------------------------|



e|--10/17-19------------------|

B|----------------------------|

G|----------------------------|

D|----------------------------|

A|----------------------------|

E|------------15\7---7-7-7-7--|



e|-------------------------------------------|

B|-------------------------------------------|

G|-------------------------------------------|

D|-------------------------------------------|

A|--7-6-----6-----6--------------------------|

E|------7-6---7-6-----7-6-0-6-6-0-5-5-0-3-3--|



e|-------------------------------------------|

B|-------------------------------------------|

G|-------------------------------------------|

D|----------4--5--------2-----------------5ap|X2

A|-2--4--5--2--3--4--5--0--4--5--5--4--2--3--|

E|-0--2--3--------2--3-----2--3--3--2--0-----|





e|--------------------------------------| e|-------|

B|--------------------------------------| B|-------|

G|--4--5--4--2--4--5--4--5--4--2--------| G|-------|

D|--4--5--4--2--4--5--4--5--4--2---1-1--|x2 D|-1-----|

A|--------------------------------------| A|---2-3-|

E|--------------------------------------| E|-------|





C B A

Como relámpago en la oscuridad

A

Como relámpago en la noche vendrá

D

Buscando a los que prometió la eternidad

B C B C D

Quienes creyeron en su nombre.



C B A

Como relámpago en la oscuridad

A

Como relámpago en medio de este mar

D

Donde naufragan los que prefieren andar

B C B C

En la vanidad de sus mentes.



sobre E C A B

D|-----2-|

A|-7\2---|

La 6º vez asi

e|------------------| -------------------------------------|

B|------------------| -------------------------------------|

G|--5-4-2-----------|X5 --5-4-2---------4--5-4-2-4~-5-4-2-4~-|

D|--------5-4-2-0-2-| --------5-4-2-0-4--------------------|

A|------------------| ----------------2--------------------|

E|------------------| -------------------------------------|



e|------------------------------------------------------------|

B|------------------------------------------------------------|

G|------------------------------------------------------------|

D|---------------------------------------------------------2--|

A|---------7-6-----6-----6---------------------------------2--|

E|-7-7-7-7------7-6---7-6-----7-6-0-6-6-0-5-5-0-3-3-0-2-2--0--|





ap: armonico de pua

h:hammer on

p:pull off

/:arrastre ascendente

\:arrastre descendente

Letra subida por: Anónimo

Discos en los que aparece este acorde: A Traves De Los Tiempos , La Industria Del Poder

El acorde de Como Relámpago En La Oscuridad de Logos es una versión de la canción original realizada por colaboradores/usuarios de Coveralia.

¿Has encontrado algún error en esta página? Envíanos tu corrección del acorde