música
Buscador

Acorde de Como Me Duele - Reik

Letra de Como Me Duele

 Guitarra: 

e|-----------------------------3333--3-2---3-2---

B|-----------------------------3333------3-----3-

G|-------0-----------0---------0000--------------

D|----4-----4-----4-----4------2222--------------

A|-7-----------5-----------5---3333--------------

E|-----------------------------------------------







e|-3---2-

B|---2---







e|-----------------------------0-

B|-----------------------------3-

G|-------0-----------0---------0-

D|----4-----4-----4-----4------2-

A|-7-----------5-----------5---3-

E|-------------------------------





Em7/F# Cadd9

Se me termina el tiempo

Em7/F# Cadd9

Ya no puedo estar un dia mas sin ti

Em7/F# Cadd9

Ya las lagrimas empiezan a salir

Em7/F# Cadd9

He comenzado a ver lo bello de un principio

Em7/F# Cadd9

Y lo triste de un final

http://www.coveralia.com/acordes/como-me-duele-reik.php



Coro:

Cadd9/G

Pero como me duele el miedo a tenerte

G Em7/F#

Como tenerte si ya me duele perderte

Cadd9/G

Pero como me duele el miedo a tenerte

G Em7/F# Cadd9

Como tenerte si ya me duele perderte, ehhh

G Em7/F#

Me duele perderte



GUITARRA



Em7/F#

Tu abrazo es un respiro

Cadd9

Con un beso me mantienes vivo

Em7/F# Cadd9

Tu mirada es un bello amanecer, ehhh

Em7/F# Cadd9

Si tanto he esperado poder sentir algo tan grande

Em7/F# Cadd9

Es muy triste ver su final



CORO

Em7 D Cadd9

Si tanto he esperado poder sentir algo tan grande

Em7 D Cadd9

Es muy triste ver su final

Letra subida por: Anónimo

El acorde de Como Me Duele de Reik es una versión de la canción original realizada por colaboradores/usuarios de Coveralia.

¿Has encontrado algún error en esta página? Envíanos tu corrección del acorde