música
Buscador

Acorde de Cómo Apartarte de Mí - Franco De Vita

Letra de Cómo Apartarte de Mí





Intro D Bb*



ESTROFA



D Bm Bm A

Dímelo, como apartarte de mi



G D A

Como evitar y no pensar en ti



Bm Bb aug7*

Como decir que no a lo que llevo dentro



D/A E/G#

Y dejar que todo se lo lleve el viento



G A D A

Y como apartarte de mi... oh!



D Bm Bm A

Dímelo, ahora que te quieres ir



G D A

Ya lo has pensado bien, que será de ti



Bm Bb aug7*

Como el aire que respiro, yo



D/A E/G#

Por ti me siento vivo y dime







CORO



G A Bb F/A

como arrancarte de mi... dímelo



Ab G

Si estoy hecho de ti



Cm B aug7*

Si cada palabra, cada respiro



Eb/Bb* Asus4 A

Necesitan de ti.



G A Bb

Y dime, como arrancarte de mi.



F/A Ab G Cm B aug7* Eb/Bb* Asus4 A

(instrumental solo)





INTRO D Bb*



ESTROFA

Dímelo, como apartarte de mi

Como evitar y no pensar en ti

Como decirle a mis ojos que no te miren

A mis brazos pedirles que no te esperen.

http://www.coveralia.com/acordes/como-apartarte-de-mi-franco-de-vita.php



CORO

Y como arrancarte de mi... dímelo

Como poder olvidar

Las noches, los días, las cosas vividas

Nuestra manera de amar



Y dime como arrancarte de mi... dímelo

Como poder continuar

Se agotan mis fuerzas, se ahogan mis ansias

Como poder continuar



Y dime, como arrancarte de mi... dímelo

Si eres parte de mi

Si cada palabra, cada respiro

Necesitan de ti...





TABLATURAS DEL SOLO AL FINAL DEL CORO:

esto puede ser tocado con 2 guitarras, o una sola guitarra

usando 2 cuerdas a la vez. sólo se usa la primera y segunda

cuerda de la guitarra...estas son las notas, aunque sin la

técnica de bend note o alzado de cuerda. igual los que

saben tocar guitarra seguro que sabrán cómo hacer la

técnica...





ocultar esta pestaña Bb F/A Ab G



E --10----8--10---8----8---7--8--7--

B --11---10--11--10----9---8--9--8--



Cm B aug7* Eb/Bb* Asus4 A



E --11--13--15---11--13--15----18---18--17--15----22--

B --13--15--16---12--15--16----20---20--18--16----22--



INTRO:

D Bb*

E--------------------------------------------

B--------------------------------------------

G--/11--9--7--/11-/11-----/11--9--7----------

D------------------------------------8-------

A--------------------------------------------

E--------------------------------------------



D

E-------------------------------------------

B-------------------------------------------

G-----7--9/10/9-----------------------------

D--/8------------7/8/7----4/5/4-------------

A-------------------------------------------

E-------------------------------------------



Bb*

E-------------------------10--12/13/12/13--10----------

B---------------------/11---------------------/11/10---

G-----7--9/10/9--7-------------------------------------

D--/8--------------8-----------------------------------

A------------------------------------------------------

E------------------------------------------------------

Letra subida por: Anónimo

El acorde de Cómo Apartarte de Mí de Franco De Vita es una versión de la canción original realizada por colaboradores/usuarios de Coveralia.

¿Has encontrado algún error en esta página? Envíanos tu corrección del acorde