música
Buscador

Acorde de Ne-Yo - Closer - Now 70

Standard tuning and CAPO on 2nd fret 







Intro (with delay):

e|--------------------------------------------------------------------------|

B|--------------------------------------------------------------------------|

G|--------------------------------------------------------------------------|

D|--0-0-3-0-0-3-0-0-3-0-0--(repeat 3 times)----000000000000000000000--------|

A|--------------------------------------------------------------------------|

E|--------------------------------------------------------------------------|

P.M..............................................................





Arpeggio(played throughout the song):



e|--------0------0-------0------0----|

B|------------6-------6-------6------|

G|----------5-------5-------5--------| (2)

D|-----8-----------------------------|

A|-----------------------------------|

E|--6--------------------------------|



e|----------0-------0------0-------0--|

B|---------------6------6-------6-----|

G|-------------5------5------5--------| (2)

D|------7-----------------------------|

A|---5--------------------------------|

E|------------------------------------|



Bb

Turn the lights off in this place

Dm7

And she shines just like a star



And I swear I know her face

Bb

I just don`t know who you are



Turn the music up in here

Dm7

I still hear her loud and clear



Like she`s right there in my ear



http://www.coveralia.com/acordes/closer-ne-yo.php

Telling me

Bb

that she wants to own me

C Bb

To control me

C Dm7

Come closer

C Dm7

Come closer



Bb C

And I just can`t pull myself away

Bb C

Under Her Spell I can't break

Dm7

I just cant stop

C Dm7

I just cant stop

Bb C

And I just can`t bring myself away

Bb C

But I don`t want to escape

Dm7

I just can`t stop

C Dm7

I just can`t stop

Bb

I can feel her on my skin

Dm7

I can taste her on my tongue



She's the sweetest taste of sin

Bb

The more I get the more I want



She wants to own me.....

Dm7

Come closer



She says "come closer"





Chorus.......

Letra subida por: Anónimo

El acorde de Ne-Yo - Closer de Now 70 es una versión de la canción original realizada por colaboradores/usuarios de Coveralia.

¿Has encontrado algún error en esta página? Envíanos tu corrección del acorde