música
Buscador

Acorde de Claire - Jimmy Eat World

Letra de Claire

Tuning: Standard(EADGBe), No capo  

G#5      |466xxx|
Eb5      |x688xx|
C5       |x355xx|
C#5      |x466xx|
F5       |133xxx|
G5       |355xxx|

INTRO

  e|---------6~-------6----------6~-------6-|
  B|-----9--------9----------9--------9-----|
  G|---8---8--------8------8---8--------8---|
  D|-6----------6--------6----------6-------|
  A|----------------------------------------|
  E|----------------------------------------|
  
  e|-------------6-----------6--------------6-----------6-|             -|
  B|-----9---9-------9---9----------9---9-------9---9-----|              |
  G|---8---8---8---8---8---8------8---8---8---8---8---8---|              |
  D|-6--------------------------6-------------------------|              |
  A|------------------------------------------------------|              |
  E|------------------------------------------------------|              |
                                                                         |  x2
  e|-----4-----4---4-----4-----4---4-----4-----4---4-----4-----4---4-|   |
  B|---4-----4---------4-----4---------4-----4---------4-----4-------|   |
  G|-6-----6-----6---6-----6-----6---6-----6-----6---6-----6-----6---|   |
  D|-----------------------------------------------------------------|   |
  A|-----------------------------------------------------------------|   |
  E|-----------------------------------------------------------------|  -|


VERSE

 G#5   Eb5       C5       C#5
  one chance to show your face.
 G#5  Eb5                C5    C#5
  this one shot all you get. 

VERSE

 G#5   Eb5     C5        C#5
  pass by your one good thing.
 G#5         Eb5                 C5  C#5
  lift your head back shoot and chase. 

CHORUS

 F5                C#5        G#5      G5
   never hear you laugh like that, so full.
 F5    C#5    G#5      G5
   not since you were nine. 
 F5       C#5            G#5     G5
   learn your restricted ropes. 
 F5                 G#5       C#5 ~
   paint a cross on your left hand. 

VERSE 

 G#5   Eb5        C5     C#5
  one good thing signed away
 G#5      Eb5           C5   C#5
  and with it your only hope.

CHORUS

  F5         C#5    G#5   G5
   attention focused on today.
  F5         C#5   G#5     G5
   so quiet slip behind my back. 
  F5          C#5     G#5              G5
   unsettled, severing always severing old ties.
  F5        G#5  C#5 ~
   one last good-bye 
   may last the rest of your life.

INTERLUDE

  e|---------6----------6-----------6----------6-|
  B|-----9----------9-----------9----------9-----|
  G|---8---8------8---8-------8---8------8---8---|
  D|-6----------6-----------6----------6---------|  x4
  A|---------------------------------------------|
  E|---------------------------------------------|

BRIDGE

  e|---------6----------6-----------6----------6-|
  B|-----9----------9-----------9----------9-----|
  G|---8---8------8---8-------8---8------8---8---|
  D|-6----------6-----------6----------6---------|  x3
  A|---------------------------------------------|
  E|---------------------------------------------|
    one  way   trip   can   work       both 
    ways                                     and 
    loose ends kept       untied make   better 

  e|-----4-----4---4-----4-----4---4-|
  B|---4-----4---------4-----4-------|
  G|-6-----6-----6---6-----6-----6---|
  D|---------------------------------| x2
  A|---------------------------------|
  E|---------------------------------|
    friends.                    the 
    things you buy may someday leave you.

OUTRO

   G#5 Eb5     C5   C#5
   can you say full ride? 
 G#5 Eb5       C5        C#5    
   I can still see you around.


   G#5 Eb5     C5   C#5
   can you say full ride? 
 G#5 Eb5       C5        C#5    
   I can still see you around.


Letra subida por: Anónimo

Discos en los que aparece este acorde: Static Prevails

El acorde de Claire de Jimmy Eat World es una versión de la canción original realizada por colaboradores/usuarios de Coveralia.

¿Has encontrado algún error en esta página? Envíanos tu corrección del acorde