música
Buscador

Acorde de Chão - Skank

Letra de Chão

Tom: D





(intro)





E |--------------------------------------------------------|

B |-------------------------------------------------------|

G |---4--4-4-2/4-2/4-2-7-4----4--4-4-2/4-2~---------------| (2x)

D |----------------------------------------2-3-4----------|

A |----------------------------------------------2--------|

E |-------------------------------------------------------|





Chão que desliza

(riff 1)



E |--------------------|

B |--5-5-3-------------|

G |--------4-----------|

D |--------------------|

A |--------------------|

E |--------------------|





Noite de ilusões à deriva

Groove Groove Groove, hey negrita

Teu prazer me cai na saliva



Céu que convida

(riff 1)



E |--------------------|

B |--5-5-3-------------|

G |--------4-----------|

D |--------------------|

A |--------------------|

E |--------------------|





Onde o som bater eu me encaixo

Groove na medida

http://www.coveralia.com/acordes/chao-skank.php

Eu te espero em cima ou embaixo



Dentro da noite do mundo

Vamos brindar à solidão

E acordar nas tábuas desse chão





E |--------------------------------------------------------|

B |-------------------------------------------------------|

G |---4--4-4-2/4-2/4-2-7-4----4--4-4-2/4-2~---------------| (2x)

D |----------------------------------------2-3-4----------|

A |----------------------------------------------2--------|

E |-------------------------------------------------------|





Não, não vacila

Vem aqui mostrar sua arte

Groove na medida

Teu prazer é o meu estandarte



Dentro da noite do mundo

Vamos brindar à solidão

E acordar nas tábuas desse chão





E |--------------------------------------------------------|

B |-------------------------------------------------------|

G |---4--4-4-2/4-2/4-2-7-4----4--4-4-2/4-2~---------------| (2x)

D |----------------------------------------2-3-4----------|

A |----------------------------------------------2--------|

E |-------------------------------------------------------|





(riff 2)

E |----------------------------------------------|

B |--5---5---5-5-3--5-5-3----5-5-5-3-5~--5-3-----|

G |---------------4-------4------------------4---|

D |----------------------------------------------|

A |----------------------------------------------|

E |----------------------------------------------|

Discos en los que aparece este acorde: Estandarte

El acorde de Chão de Skank es una versión de la canción original realizada por colaboradores/usuarios de Coveralia.

¿Has encontrado algún error en esta página? Envíanos tu corrección del acorde