música
Buscador

Acorde de Castigadas En El Granero - Hinds

Letra de Castigadas En El Granero

[Intro]



e|3--3--1--3--3--1--1--1--0--0--3--3--1--3--3--1--3--1--5--6--|

B|3--3--1--3--3--1--1--1--0--0--3--3--1--3--3--1--3--1--5--6--|

G|4--4--2--4--4--2--2--2--1--1--4--4--2--4--4--2--4--2--6--7--|

D|5--5--3--5--5--3--3--3--2--2--5--5--3--5--5--3--5--3--7--8--|

A|5--5--3--5--5--3--3--3--2--2--5--5--3--5--5--3--5--3--7--8--|

E|3--3--1--3--3--1--3--1--0--0--3--3--1--3--3--1--3--1--5--6--| x2



G



G Em (x4)





[Verse]



G

All I know

Em

You told me you'll be home

G Em

It's cloudy sticky and we have to stay in the barn because we screw it up

G Em

And I can't go



Bb G (x4)



G

You should know

Em G

we write about you all the songs

Em G Em

And I would kill your dogs if I knew who your boxers belong



Bb G (x4)



C G





[Chorus]



G C

And all I see is a big cow (I know you heard that)

G C

And now I'm eating all your corn (I know you heard that voice)

G C

And I can't stand anymore (I know you're hearing that voice)

G C

Why can't you pass that smoking roll? (A smoking roll)

G C

I wanna take you to the mall (Daddy let me go)

G C

Stealing candy would be wrong (Oh father let me go)

G C

And you can't wait for me to grow (For me to grow)





[Verse]

http://www.coveralia.com/acordes/castigadas-en-el-granero-hinds.php



G

Back in time

Em G

Seemed funny game but now we are out

Em G Em G

With all my sisters around playing mums it blows my mind



C G (x3)

C D



e|-------------------------------|

B|-------------------------------|

G|-------------------------------|

D|-------------------------------|

A|-----1-----1-------------------|

E|-3-3---3-3---3-3-0-0-1-3-------| (x3)



e|-------------------------------|

B|-------------------------------|

G|-------------------------------|

D|-------------------------------|

A|-----1-----1-3-3-3-3-----------|

E|-3-3---3-3---------------------|





[Chorus]



G C

And all I see is a big cow (I know you heard that)

G C

And now I'm eating all your corn (I know you heard that voice)

G C

And I can't stand anymore (I know you're hearing that voice)

G C

Why can't you pass that smoking roll? (A smoking roll)

G C

I wanna take you to the mall (Daddy let me go)

G C

Stealing candy would be wrong (Oh father let me go)

G C

And you can't wait for me to grow (For me to grow)



G C

And all I see is a big cow (I know you heard that)

G C

And now I'm eating all your corn (I know you heard that voice)

G C

And I can't stand anymore (I know you're hearing that voice)

G C

Why can't you pass that smoking roll? (A smoking roll)

G C

I wanna take you to the mall (Daddy let me go)

G C

Stealing candy would be wrong (Oh father let me go)

G C

And you can't wait for me to grow (For me to grow)

Letra subida por: Anónimo

Discos en los que aparece este acorde: Leave Me Alone

El acorde de Castigadas En El Granero de Hinds es una versión de la canción original realizada por colaboradores/usuarios de Coveralia.

¿Has encontrado algún error en esta página? Envíanos tu corrección del acorde