música
Buscador

Acorde de Cartas Marcadas - Mal De Parkinson

INTRO:
D - Bd - C - D:    x 4

E/---------------------------------------------------------
B/---------------------------------------------------------
G/-7-9-10-9-10-9---9-10-9-10-9----9-10-9-10-9--7-10-9-10-9-
D/---------------8-------------10--------------------------
A/---------------------------------------------------------
E/---------------------------------------------------------

                         D
Es la historia de quien fue
                   Bd
En su vida un ganador
                     C
Con sus lujos sus placeres
                     D
Con su llanto su prisión


Las victorias y fracasos
Siempre fueron su pesion
Escapando con las drogas
Nunca vio la solucion

   Bd        C          D
La fama, el mullo y la gente
Mataron poco a poco su ambicion
De a ratos se sentia muy alegre
Y otros undido en depresion


Jugando al solitario
Siempre con cartas marcadas
El asunto era jugar
Ganar no servia de nada

Pero un dia en la mañana
El fierro amartillo
Solo pensaba apretarlo
Pero nunca se animo

Bebio ginebra hasta ahogarse
Tomaba para juntar mas coraje
Salio al balcon a refrescarse
Y el muy boludo vino a patinaerse

D
Y ahí le dio una sonrisa
Bd
Cayendo de un sexto piso
C
Una nota a su lado decia
D
Hoy se despidio muerto
Los veo muy pronto en otro infierno
Su sangre gris en el rojo cemento delineaba
Yo nunca me ubiera animado a hacerlo






E/---------------------------------------
B/--------------------10---8-------------
G/-----------10--9-----------10---9------
D/---------------------------------------
A/---------------------------------------
E/---------------------------------------



   D
Hoooooo

   Bd
Hoooooo

   C
Hoooooo

   D
Hoooooo     X2



E/--------------------------------------------------
B/---------10---8-------------------10--8-----------
G/--10--9----------10--9---10--9---------10--9-- 7--
D/--------------------------------------------------
A/--------------------------------------------------
E/--------------------------------------------------



Letra subida por: Anónimo

Discos en los que aparece este acorde: 2 Amor Odio Resistencia , Quince (Dvd) , Quince (Dvd)

El acorde de Cartas Marcadas de Mal De Parkinson es una versión de la canción original realizada por colaboradores/usuarios de Coveralia.

¿Has encontrado algún error en esta página? Envíanos tu corrección del acorde