música
Buscador

Acorde de Canción Para Ti - Frank Quintero

Letra de Canción Para Ti



Intro 1

E|---------------------------------------------------------------|

B|--------3-----3-----3-----3---------3-----3-----3-----3--------|

G|------2-----2-----2-----2---------4-----4-----4-----4----------|

D|----4-----4-----4-----4---------5-----5-----5-----5------------|

A|--0---------------------------0--------------------------------|

E|---------------------------------------------------------------|



E|---------------------------------------------------------0-----|

B|--------3-----3-----3-----3---------3-----3-----3-----3--3-----|

G|------2-----2-----2-----2---------4-----4-----4-----4----4-----|

D|----4-----4-----4-----4---------5-----5-----5-----5------5-----|

A|--0---------------------------0--------------------------0-----|

E|---------------------------------------------------------------|





Intro 2

E|--5--5--7--5--3--2--0--------2--0----------------------0-------|

B|--7--7--7--7--5--2--0--------3--0--3----0--2--3--2--3--1-------|

G|-----------------------4-----------4----0--2--4--2--4----------|

D|-----------------------5---------------------------------------|

A|---------------------------------------------------------------|

E|---------------------------------------------------------------|



E|--5--5--7--5--3--2--0--------2--0----------------------0-------|

B|--7--7--7--7--5--2--0--------3--0--3----0--2--3--2--3--1-------|

G|-----------------------4-----------4----0--2--4--2--4----------|

D|-----------------------5---------------------------------------|

A|---------------------------------------------------------------|

E|---------------------------------------------------------------|





G A7

Cierra los ojos y con suavidad

Em Bm

Deja descansar tu cabeza hacia atrás,

G

deja que el sueño

A7 Bm Bm7

sea dueño de ti



G A7

Cuando la noche con lentitud

Em Bm

cuidadosamente apage la luz

G

deja que el viento

A7 Bm Bm7

te traiga hasta mi



G A7

Y si en sueños pudiera volar

Em D

yo llegaría hasta ti

G A7

para entonces hacerte escuchar

Em F#7

lo que nunca te pude decir



G A7

http://www.coveralia.com/acordes/cancion-para-ti-frank-quintero.php

Y siento la aurora a veces tocar

Em Bm

cuidadosamente mi puerta al pasar

G

y sin hablar

A7 Bm Bm7

me lleva hasta ti





G A7

No encuentro palabras que puedan decir

Em Bm

lo maravilloso que es poder sentir

G

el calor de un hogar

A7 Bm Bm7

que refugias en ti



G A7

Y si en sueños pudiera volar....



G A7

Rie sin la alegría que te robé

G A7

vive con la tristeza que te entregué

G A7

llora con la nostalgia que te dejé

G A7

guardame tu promesa

G A7

que tal vez un día estarás allí

G A7

que de vez en cuando pensarás en mi





Intro 2





Bm Bm7 G A7

Si a tus sueños pudiera volar...





G A7

Rie sin la alegría que te robé





G A7

que tal vez un día estarás allí

G A7

que de vez en cuando pensarás en mi

G A7

que tal vez un día estarás allí

G A7

que de vez en cuando pensarás en mi



Intro 2







Letra subida por: Anónimo

Discos en los que aparece este acorde: Frankamente Acustico

El acorde de Canción Para Ti de Frank Quintero es una versión de la canción original realizada por colaboradores/usuarios de Coveralia.

¿Has encontrado algún error en esta página? Envíanos tu corrección del acorde