música
Buscador

Acorde de Can't Deny My Love (Goshfather & Jinco Remix) - Brandon Flowers

Letra de Can't Deny My Love (Goshfather & Jinco Remix)





Em C Em

Open up, till the night our bed is underneath a heavy moon

Em C Em

Cast a doubt like a shadow walking through the corners of the room

C D Em

I always thought I have a full tank to go

Bm

(But not tonight, you're not alone)

C D

I always thought I'd find my own way...



C

(What's going on in your head now?

D

Maybe something I said?

Em Bm

I know that you've been living in the past.

C

What's going in your head now?

D

Maybe something I said)





C D

It's driving me crazy, and you can try to lie

Em

But you're not gonna, not gonna deny

Bm C

No, you're not gonna, not gonna deny my love.

D

You can run to the hillside, you can close your eyes

Em

But you're not gonna, not gonna deny

Bm C

No, you're not gonna, not gonna deny my love.

D Em

You can't deny my love



Bm ?" C ?" D





Em C Em

The eyes of God, watching over us so we don't break the golden rules.

Em C Em

The seven seas, have we learned or are we sailing on a ship of fools?

C D Em

I always thought I had a full tank to go

Bm

(But not tonight, you're not alone)

C D

I always thought we'd get there someday







C D

It's driving me crazy, you can try to lie

Em

But you're not gonna, not gonna deny

Bm C

No, you're not gonna, not gonna deny my love.

D

You can run to the hillside, you can close your eyes

Em

But you're not gonna, not gonna deny

Bm C

http://www.coveralia.com/acordes/can-t-deny-my-love--goshfather-y-jinco-remix--brandon-flowers.php

No, you're not gonna, not gonna deny my love.

D Em

You can't deny my love



Bm ?" C ?" Em





Em

When you close your eyes, tell me what you see.

Em

Locked up in your room is there any room for me?

G

In the spoils of your mercy

Am

In the reverence of your bed

Bm

In the cradle of the morning

C

What was it that you said?

C D

What's going in your head now?







Em

You're not gonna, not gonna deny

Bm C

No, you're not gonna, not gonna deny my love.

D

You can run to the hillside, and you can close your eyes

Em

But you're not gonna, not gonna deny

Bm C

No, you're not gonna, not gonna deny my love.

D Em Bm

You can't deny my love, my love.



C ?" D - Em





Outro:

E |----------------------------|----------------------------|

B |-----5-----7-----8--5-------|-----5-----7-----8--7-------|

G |--4-------------------------|--4-------------------------|

D |----------------------------|----------------------------|

A |----------------------------|----------------------------|

E |----------------------------|----------------------------|





----------------------------|----------------------------|

-----5-----7-----8--8-------|--7--7-----5-----3----------|

--4-------------------------|---------------------4------|

----------------------------|----------------------------|

----------------------------|----------------------------|

----------------------------|----------------------------|





----------------------------|----------------------------||

-----5-----7-----8--5-------|-----5-----7-----8--10------||

--4-------------------------|--4-------------------------||

----------------------------|----------------------------||

----------------------------|----------------------------||

----------------------------|----------------------------||





Letra subida por: Anónimo

Discos en los que aparece este acorde: Can't Deny My Love (Goshfather & Jinco Remix) (Cd Single)

El acorde de Can't Deny My Love (Goshfather & Jinco Remix) de Brandon Flowers es una versión de la canción original realizada por colaboradores/usuarios de Coveralia.

¿Has encontrado algún error en esta página? Envíanos tu corrección del acorde