música
Buscador

Acorde de Can't Buy Me Love - The Beatles

Letra de Can't Buy Me Love

 Solo: 

E|-----3--3-3--3----------3-3--3--------------------------------3-3-3-3---------

B|---4-----------6-4---4---------6-4------------------------------------6-4-----

G|-5-----------------5---------------5-3---------5-5--5-5-5-5---------------5---

D|---------------------------------------5-3-----5-5--5-5-5-5-------------------

A|-------------------------------------------6----------------------------------

E|------------------------------------------------------------------------------



E|--------------------------------------

B|--------------------------------------

G|------------------------3-------------

D|-5-5-53--1h3p1-----1h3---5-3-1-------

A|----------------3---------------3-3---

E|--------------------------------------





Em Am Em Am Dm G7

Can't buy me love oh, love oh, can't buy me love oh

C

http://www.coveralia.com/acordes/can-t-buy-me-love-the-beatles.php

I'll buy you a diamond ring my friend, if it makes you feel alright.

F7 C

I'll get you anything my friend, if it makes you feel alright.

G7 F7 G7 F7 C

Cos’ I don't care too much for money, money can't buy me love.



I'll give you all I've got to give, if you say you love me too.

I may not have a lot to give but what I've got I give to you.

I don't care too much for money, money can't buy me love.



Em Am C

Can't buy me love oh, everybody tells me so.

Em Am Dm G7

Can't buy me love oh, no, no, no, no.



Say you don't need no diamond ring and I'll be satisfied.

Tell me that you want those kind of things that money just can't buy.

I don't care too much for money, money can't buy me love.

Letra subida por: Anónimo

El acorde de Can't Buy Me Love de The Beatles es una versión de la canción original realizada por colaboradores/usuarios de Coveralia.

¿Has encontrado algún error en esta página? Envíanos tu corrección del acorde