música
Buscador

Acorde de Cambaral - Avalanch

Letra de Cambaral



Intro = Gm-Cm-Gm-F-Gm x2 Guitarra 1



Guitarra 2 :



e|----------------6---5---------------------------------------|----

B|--6h8-8-----------------------------------------------------|----

G|--------7---5/7---7---7/8-7-5-7-7-8-7-7-5-3-3-3-5-5-3-2h3---|-X-2

D|----------------------------------------------------------5-|----

A|------------------------------------------------------------|----

E|------------------------------------------------------------|----





Gm Cm Gm F Gm

De este lugar, cuentan leyendas e historias y juran que así ocurrieron.

Gm Cm Gm F

Siglos atrás, las tropas del rey en sangrienta batalla, a un joven

D

de muerte hirieron.





D# F D# F A#

Y el rey con crueldad así le encerró, su herida mortal no obtuvo perdón,

Am7 Gm F D Am

y en el suelo esperó la muerte sin ver la luz del sol.





Gm Cm Gm F

Sin fuerzas ni voz. Vio a una bella mujer que con pena llegó hasta

Gm

su celda.

Gm Cm Gm F

La muerte burló, su corazón ahora ciego de amor comenzó a latir

D

con más fuerza.





D# F D# F

Ella hija del rey, él un simple ladrón. El destino, tan cruel, les robó el

A# Am7 Gm F D. Gm

corazón, en aquella prisión y lejos de ver la luz del sol.





D# F Cm A# Am7 Gm F D#

Déjame morir en tus brazos y así un instante tal vez podré ser feliz.

F Cm A# Am7 Gm F D#

Esta vez la vida se ríe de mí y ahora toca a su fin aunque quiera vivir.





Cm A# G# Cm A# G#

Quiero ver tu rostro otra vez. Y saber que siempre estaré junto a ti

G

aunque vaya a morir.

http://www.coveralia.com/acordes/cambaral-avalanch.php





D# F D# F

Dicen que ella escapó con su joven ladrón, pero el rey les halló,

A# Am7 Gm F D

y con furia y dolor, ante un beso de amor, a los dos con su espada

Gm

atravesó.







Solo



Gm-Cm-Gm-F-Gm x2 Guitarra 1



Guitarra 2 :



e|-------10-13-10~~~--|

B|--8-11--------------|

G|--------------------|

D|--------------------|

A|--------------------|

E|--------------------|



e|--10h11-10-------------10---------------------------------------------|

B|-----------13-13-11-10----13-11-11-10-8-8/11-11-11-11-10-10h11p10-8~~-|

G|----------------------------------------------------------------------|

D|----------------------------------------------------------------------|

A|----------------------------------------------------------------------|

E|----------------------------------------------------------------------|



e|-------10-15-10~~~-|------6-5-5-----8-5-------------------6------------|

B|--8-11-------------|--5/8-------8-6-----8-8-6-4-4/6-6-6-6---6-6/8-8~~--|

G|-------------------|---------------------------------------------------|

D|-------------------|---------------------------------------------------|

A|-------------------|---------------------------------------------------|

E|-------------------|---------------------------------------------------|



D# F

Cuentan que,

Cm A# Am7 Gm F D#

en las noches de invierno se ve nacer una flor donde no llega el sol.

F Cm A# Am7 Gm F D#

Por amor, sus almas unidas están y se pueden amar para la eternidad.

Cm A# G# Cm A# G#

Puede ver su rostro otra vez, y saber que siempre estará junto a él,

G Cm~~

junto a él...







Letra subida por: Anónimo

El acorde de Cambaral de Avalanch es una versión de la canción original realizada por colaboradores/usuarios de Coveralia.

¿Has encontrado algún error en esta página? Envíanos tu corrección del acorde