música
Buscador

Acorde de Cama De Rosas - Bon Jovi

Letra de Cama De Rosas

******************CHORDS********************



BbMaj7 F9 Am Bb F

e---x-------3------0------x------1-----------

B---3-------1------1------3------1-----------

G---2-------2------2------3------2-----------

D---3-------3------2------3------3-----------

A---1-------x------0------1------3-----------

E---x-------x------x------x------1-----------



C C/E Dm Fsus4 Bb/F

e--0---------3-------1------x---------x------

B--1---------1-------3------1---------3------

G--0---------0-------2------3---------3------

D--2---------2-------0------3---------3------

A--3---------x-------x------3---------x------

E--x---------0-------x------1---------1------



****************************************************



Keyboard arranged for guitar:

============================



E----------------------------------------------------

B-8-----8-----8-----8-----8-----8-----8-----8--------

G---10----10----10----10----10----10----10----10-----

D------12----12----12----12----10----10----10----10--

A----------------------------------------------------

E----------------------------------------------------



Rhythm fig #1: Rhythm fig #2: Rhythm fig #3:



E------------- ------------ ---------------------------

B------------- ------------ ---------------------------

G------------- ------------ ---------------------------

D----------(5) ------------ ---------------------------

A----------(3) --------3--- ---------------------------

E-1~--1-3-1-0- -1~-1-5--1~- -1~-3(b)5-3(b)5-3(b)5-3-1~-





Intro: (with keyboard part played over top)

=====



rake rake

E---10-12-(b)13-12-10------------10-12-(b)13-12-10-------------------

B--10----------------10^13^10---10-----------------13(b)15--10^13----

G-10---------------------------10------------------------------------

D--------------------------------------------------------------------

A--------------------------------------------------------------------

E--------------------------------------------------------------------



rake

E---10-12-(b)13-12-10-----------------10-12-(b)13-12-10--------------

B--10----------------13(b)1513^15----10----------------13(b)15--10^13

G-10-----------------------------14-10-------------------------------

D--------------------------------------------------------------------

A--------------------------------------------------------------------

E--------------------------------------------------------------------







Verse 1 (with keyboard part played over top)

-------



BbMaj7 F9

Solo y tan triste, como un viejo piano,

BbMaj7 F9

Tarde ya sin saber a donde despierto sin rumbo

Am Bb

Porque un litro de vodka he bebido ayer

F Bb

Y una rubia en mi cama siempre me espera, tal vez,

Bb C F

Pesadillas de cine que te hacen morir sin nacer.





Verse 2

-------

BbMaj7 F9

La manana es tan gris como esos besos de nadie,

BbMaj7

La cancion al reves sin cabeza ni pies,

http://www.coveralia.com/acordes/cama-de-rosas-bon-jovi.php

F9

Me recuerda

Am Bb

Cuando hablamos por fin de luchar y vivir,

F Bb

Del amor que tu, sientes por mi

Bb

La vervad es,

Bb C F

Yo no soy nadie sin ti





Estribillo

----------

Dm C Bb F

Quiero tener tu Amor en un lecho rosas

Dm C/E Fsus4 F

y olvidar por fin el dolor de ayer

Bb F Bb F

Cerca de ti, ser tu nombre, ser tu sombra,

Dm C/E Bb/F F

Tener tu amor, en un lecho de rosa







Verse 3

-------



Aunque quiero correr,

De casa nunca me alejo

El amor de verdad no se puede comprar con dinero

Pues tan lejos estas hacia el norte o al sur,

Intento soñarte entre la multitud,

Mis ojos cerrar y decirte,

Solo tu amor es la luz





Estribillo



Solo:

----



E----------------------------------------10--------------------------

B-------------------------------------------13^10-13(b)15~-13(b)15-13

G--------------------------------------------------------------------

D--------3-5-5(b)7-5(b)7~-3^5----------------------------------------

A-5-3-5~----------------------3~--3^5--------------------------------

E-------------------------------------/5~----------------------------







E-13(b)15-13~-13-10---10--------------------------------13-15-(b)17~

B-------------------13---13-10--10-13-13(b)15~----15-17-------------

G------------------------------9---------------/14------------------

D-------------------------------------------------------------------

A-------------triplet triplet triplet -----------------------------

E-------------------------------------------------------------------



rake

E-15-13-17(b)18-17-13^15-----------------10-12-(b)13-12-(b)12\/~----

B------------------------13~-13^15------10--------------------------

G----------------------------------14~-10---------------------------

D-------------------------------------------------------------------

A-------------------------------------------------------------------

E-------------------------------------------------------------------





verse 4

-------



Miro al mundo girar

Hacia un futuro desierto,

Y mi amante me pide

Que sea su payaso otra vez,

Yo le digo no

Si tengo tu amor no estoy solo,

Ella es soledad y tu

La verdad y la fe





Estribillo X2

Letra subida por: Anónimo

Discos en los que aparece este acorde: In The Mix , Cama De Rosas (Cd Single)

El acorde de Cama De Rosas de Bon Jovi es una versión de la canción original realizada por colaboradores/usuarios de Coveralia.

¿Has encontrado algún error en esta página? Envíanos tu corrección del acorde