música
Buscador

Acorde de Calaveras Y Diablitos - Los Fabulosos Cadillacs

Letra de Calaveras Y Diablitos



e|--0--|-----|------------------------------------

|-----|-----|------------------------------------

|--0--|-----|------------------------------------

|-----|-----|------------------------------------

|-----|--0--|------------------------------------

E|-----|-----|------------------------------------

/



* todas las cuerdas se tocan.







intro: (2x)

----------------------------------------------

----------------------------------------------

----------------------------------------------

------7---4-7---6--------7--------------------

--4-7----5----7-------4-7---8-10-8------------

----------------------------------------------



(2x) ~~~~~~~~

----------------------------------------------

--5-5-5-5---7--9--7----(7)/(9)--9-------------

--6-6-6-6---7--9--7----(7)/(9)--9-------------

----------------------------------------------

----------------------------------------------

----------------------------------------------



(1x) ~~~~~

-----------------------------------9-------------

--5-5-5-5---7--9--7----(7)/(9)--9--10-----7-7-9-9

--6-6-6-6---7--9--7----(7)/(9)--9--------7-7-9-9-

-------------------------------------------------

-------------------------------------------------

-------------------------------------------------



verso:

A

Yo a vos no le creo nada

D E

Como vos vas a creer en mi...?

http://www.coveralia.com/acordes/calaveras-y-diablitos-los-fabulosos-cadillacs.php

A

Universo de tierra y agua

D E7/9

me alegan de vos



A

Las tumbas son para los muertos

D E

Las flores para sentirse bien

A

La vida es para gozarla

D E

La vida es para vivirla mejor





coro:(2x)

A D E

Calaveras y diablitos.... (2x)

A D E A

Calaveras y diablitos....Invaden my corazon



intelude:

D

No quiero morir sin antes haber amado,

A

pero tampoco quiero morir de amor

D

Calaveras y daiblitos

B E

Invaden mi corazon





verso:(1x)



coro:(1x)



terninacion (2X):

A D E

uuh uuuuh uuh





Letra subida por: Anónimo

El acorde de Calaveras Y Diablitos de Los Fabulosos Cadillacs es una versión de la canción original realizada por colaboradores/usuarios de Coveralia.

¿Has encontrado algún error en esta página? Envíanos tu corrección del acorde