música
Buscador

Acorde de Cae El Sol - Airbag

Letra de Cae El Sol

Intro: D  Em7 C (x4)



e||-----------------------------------||

B||-----------------------------------||

G||---------7-7-7-7---7h9-9-7-7-------||

D||-7-7-7-9---------------------9-9---||

A||-----------------------------------||

E||-----------------------------------||





D Em7 C D Em7 C

| | | | | |

e||---2---2---3------0-----|--------------------------------||

B||---3-----3---3------1---|-----0---3---0------------------||

G||---2-----------0------0-|---2---2---2---2----------------|| x2

D||-0----------------------|-0------------------------------||

A||------------------------|-----------------0h2--0-----2h3-||

E||------------------------|-------------------------3------||





A7 G Em7

Y cada vez que vuelvo

A7 G Em7

tus ecos estan

A7 G Em7

y querria despertarme

A7 Dm

y al fin con vos

Em7 D

volver a jugar





Em7

Cae el sol

C D Em7 C

y aun sigo soñando

D Em7

Sale el sol

C D Em7 C

y no te puedo encontrar





El arpegio que va sobre la estrofa siguiente va asi:

||-------------------------------|-----------------------------0-||

||-------------------------------|---------------------------0---||

||-----0-----0-------0-----0---0-|-----0-----0-------0-----0-----||

||---2-----2-------2-----2---2---|---2-----2-------2-----2-------||

||-0-----0-----------------------|-0-----0-----------------------||

||---------------3-----0---------|---------------3-----0---------||



A7 G Em7 A7

Y cada vez que vuelvo aqui

G Em7

siento que vos

A7 G Em7

me arrojaste a la inercia

A7 Dm

sin novedad

Em7 D

sin decepcion





http://www.coveralia.com/acordes/cae-el-sol-airbag.php

Em7

Cae el sol

C D Em7 C

y aun sigo soñando

D Em7

Sale el sol

C D Em7 C

y no te puedo encontrar





Interlude: G E5 F5 C5 x4





*** Arpegio idem estrofa anterior ***



A7 G Em7

Y cada vez que vuelvo

A7 G Em7

un mismo final

A7 G Em7

afuera el mundo sigue

A7 Dm

soy uno mas

Em7 D

buscando en el mar





Em7 C

Cae el sol...

D Em7 C





*** Toquen esta parte con cejillas, suena mucho mejor ***



A

Un extraño destino

Dm Em7

una oscura verdad

A

tan solo tropiezos

Dm Em7

amar o callar

A

Anduve caminando

Dm Em7

por calles al azar

A

por calles vacias

Dm Em7 D

Buenos Aires, Buenos Aires....humedad







Em7 C

Cae el sol...

D Em7 C





D Em7 C

Sale el sol...

D Em7 C

Discos en los que aparece este acorde: Voragine , Voragine (Edicion Deluxe) , Samsara , Samsara , Cae El Sol (Cd Single)

El acorde de Cae El Sol de Airbag es una versión de la canción original realizada por colaboradores/usuarios de Coveralia.

¿Has encontrado algún error en esta página? Envíanos tu corrección del acorde