música
Buscador

Acorde de C.J. - Los Fabulosos Cadillacs

Letra de C.J.

Intro.(es con organo, pero suena bien con la guitarra elec.) 



Am Am/F# Am Am/F# E

E-------------------------------------------------------------------

A-------------------------------------------------------------------

D-----7-----------------------------------7-------------------------

G--------4--5--------------5-----------------4--5--------------5----

B--------------5--------5-----4--5--4--5-----------5--------5-----5-

E-----------------7--5--------------------------------7--5----------

Am Cm Bm Bm7 E

E------------------------------------------------------

A------------------------------------------------------

D------------------------------------------------------

G------------------------------------------------------

B-----------5------------4-----------------------------

E--7--7--5------7--7--5------7--7---7--7---10--9--8--7-



Am Am/F# Am

Tengo un lugar lejos de todo

Am/F# E E7

lejos, nunca nadie estuvo ahí

Am *A,*A#,*B

lo guardo aquí

Cm

dentro de mí

Bm Bm E E7

no hay tiempo, ni prisa, ni fin



A

Vivir allí con vos

C#m

crecer juntos los dos

D Bm E E7

olvidarnos todo, morir de amor

A C#m

saber si hay, vida normal

A F#m A F#m E

afueeeera de mi soledad



http://www.coveralia.com/acordes/c-j--los-fabulosos-cadillacs.php

Intermedio

'El itermedio es como la introducción.'



Am Am/F# Am

No le tengas miedo al abismo

Am/F# E E7

es el vacío despues de reír

Am *A,*A#,*B

lo llevo aquí

Cm

dentro de mí

Bm Bm E E7

no hay tiempo, ni prisa, ni fin



A

Vivir allí con vos

C#m

crecer juntos los dos

D Bm E E7

olvidarnos todo, morir de amor

A C#m

saber que no hay, vida normal

A F#m A F#m

afueeeera de mi soledad.



Final



E-------------------------------------------------------------------

A-------------------------------------------------------------------

D-7-----------------------------------------7-----------------------

G----4--5--------------5-----------------------4--5--------------4--

B----------5--------5-----4--5--4--5-----------------5--------5---5-

E-------------7--5--------------------7--8--------------7--5--------



Am/F#-Este acorde es Am con bajo en F#



*-El asterisco quiere decir que se tocan solo los bajos, por ejemplo:

*A-Es el bajo de La.

Letra subida por: Anónimo

El acorde de C.J. de Los Fabulosos Cadillacs es una versión de la canción original realizada por colaboradores/usuarios de Coveralia.

¿Has encontrado algún error en esta página? Envíanos tu corrección del acorde