música
Buscador

Acorde de Busca La Solución - Azero

Letra de Busca La Solución

INTRO:



e-------------------------------------------------------

B---5---8-6-5-------------------------------------------

G-5---5---------4---7-5-4-------------------------------

D-------------5---5---------7---10-9-7----9----12-10-9--

A-------------------------8---8--------10---10----------

E-------------------------------------------------------



e--------------------------------------------------

B---5---8-6-5--------------------------------------

G-5---5---------4---7-5-4----------------7-5-4-5---

D-------------5---5-----------10-9-7-5-5-----------

A-------------------------8-8----------------------

E--------------------------------------------------





C5 G5 F5 G5







Comienza a cantar:







C G F

Revuelvo sin parar la puta realidad.

F G

Es la protesta nuestra forma de luchar.



C G F

Sentir y compartir, vivir Y resistir,

F G

la pieza que no quiere coincidir.





e-----------------------------------------------------------

B-----------------------------------5-5-5-5-------8-6-5-----

G--5^-----5-7-5---5^-----5-7-5---7^---------7-5-7-------7-5-

D-----5-7-------7----5-7-------7----------------------------

A-----------------------------------------------------------

E-----------------------------------------------------------



(Esto no esta demasiado bien)





C G F

Pongamos freno ya a esta sociedad

F G

que sólo vive de su puto capital



http://www.coveralia.com/acordes/busca-la-solucion-azero.php

C G F

Con ganas e ilusión, con fuerza y corazón.

F G

Siempre adelante intentando ir a mejor.







ESTRIBILLO:



C G

Ser diferentes, creando ambiente,

F G

y haciendo frente buscar la solución.



C G F

Si no lo entiendes, si no lo sientes,

F G

es tu problema.Busca la solución.







e----------------------------------------------------8-7-5---

B--6-5-6-8-6-5-----------6-8-6-5-----------8-6-5-----------8-

G--------------7-5-4-5-7---------7-5-4-5-7-------7-5---------

D------------------------------------------------------------

A------------------------------------------------------------

E------------------------------------------------------------







(Ahora toca la primera parte de la intro 3 veces)







C G F

Sentir y consentir, vivir sin reprimir,

F G

cambiando los prejuicios que hay en ti.

C G F

Crecer para soñar, luchar para crear

F G

la senda sin principio ni final.





ESTRIBILLO









Letra subida por: Anónimo

Discos en los que aparece este acorde: ...hay Por Que Luchar

El acorde de Busca La Solución de Azero es una versión de la canción original realizada por colaboradores/usuarios de Coveralia.

¿Has encontrado algún error en esta página? Envíanos tu corrección del acorde