música
Buscador

Acorde de Buenos Días Amor - Jose Jose

Letra de Buenos Días Amor





*Intro:



Palm Mute

1. --------------------------------------------8.-5.-6---5-----------------

2. -8b10-8b10~-8b10r8p6-8~--8p6p5h6----------6.--------8---6-6-5---5-------

3. ---------------------------------5h7-7--7.--------------------7---5-----

4. --------------------------------------------------------------------/7~-

5. ------------------------------------------------------------------------

6. ------------------------------------------------------------------------



1. -----------------------------8-5-6---|

2. -8b10r8p6-8~--8p6p5---------6------8-|

3. --------------------5-5h7--7---------|

4. -------------------------------------|

5. -------------------------------------|

6. -------------------------------------|





*Verso:



F Gm C7

Confundí tu piel de nácar con la mañana

Gm C7 F

confundí tus ojos verdes con agua clara,

F7

tu cabello con la noche

A# Bdim

y tu cuerpo con mi almohada

F C7 F Gm-C7

yo estaba soñando y tú a mi lado acurrucada.





F Gm C7

Me perdí en tu vientre cuando aún dormías

Gm C7 F

la sorpresa abrió tus ojos y se hizo el día,

F7

encerré un beso en tus labios

A# Bdim

por si acaso me reñías

F C7 F

y cubrí tu cuerpo pues el alba nos veía.





*Coro:



C

Buenos días amor, amor, amor,

F

qué tiene tu cara

C

http://www.coveralia.com/acordes/buenos-dias-amor-jose-jose.php

que ha perdido el color

F

amor amor, y no dice nada,

Am

he viajado tu piel de norte a sur

Dm G7 C

y no he encontrado a otra mujer como tú.





C

Buenos días amor, amor, amor,

F

qué tiene tu cara

C

que ha perdido el color

F

amor amor, y no dice nada,

Am

he viajado tu piel de norte a sur

Dm G7 C

y no he encontrado a otra mujer como tú.





*Verso:



F Gm C7

Abandonada la suerte de la mañana

Gm C7 F

escondiste tus temores bajo la almohada

F7

sé que estabas enfadada

A# Bdim

pero no dijiste nada

F C7 F

el que calla otorga y sé que estás enamorada.





*Coro:



C

Buenos días amor, amor, amor,

F

qué tiene tu cara

C

que ha perdido el color

F

amor amor, y no dice nada,

Am

he viajado tu piel de norte a sur

Dm G7 C

y no he encontrado a otra mujer como tú.

(Fade Out)

Letra subida por: Anónimo

El acorde de Buenos Días Amor de Jose Jose es una versión de la canción original realizada por colaboradores/usuarios de Coveralia.

¿Has encontrado algún error en esta página? Envíanos tu corrección del acorde