música
Buscador

Acorde de Brindaremos - Pier

Letra de Brindaremos

acordes:

E: B/--5-- D: B/-3-- C#/Db: A/-4-- A: A/-0-- F#/Gb: B/-7--

G/--4-- G/-2-- D/-6-- D/-1-- G/-6--

D/--2-- D/-0-- D/-4--







intro: E D C#/Db x2

E

Que difícil es vivir así,



vivir así con tanto motín

D A

en mi interior y alrededor.

E

Ellos bailan un ritmo



que para mi no tiene swing

D A

y caducó… ya caducó.

F#/Gb D A

Y nosotros bailamos otro compás

F#/Gb D E

al son de ese ritmo tan seductor

F#/Gb D A

apurando a máxima velocidad

F#/Gb D E

cruzando fronteras de la humanidad

F#/Gb D A E

brindaremos a tu salud

F#/Gb D A E

brindaremos a tu salud.



Suavemente te seducirá



y por el tubo se deslizará



ay ay ay ay



sigilosa y tan contagiosa



como quien no quiere la cosa



tu corazón romperá.

F#/Gb D A

Al final bailamos a su compás

F#/Gb D E

al son de ese ritmo tan seductor

http://www.coveralia.com/acordes/brindaremos-pier.php

F#/Gb D A

apurando a máxima velocidad

F#/Gb D E

cruzando fronteras de la humanidad

F#/Gb D A E

brindaremos a tu salud

F#/Gb D A E

te ofrecerás como redención.

F#/Gb D A

De la nada al paraíso de ayer

F#/Gb D E

de la nada a este infierno de hoy

F#/Gb D E

no queda nada solo vos

F#/Gb D E

no queda nadie solo vos.





PUNTEO:

E/------------------------------------

B/-10-9---5b7---5---------------------

G/------------------------------------

D/------------------------------------

A/------------------------------------

E/------------------------------------



E/------------------------------------

B/-10-9---5b7---3--5------------------

G/------------------------------------

D/------------------------------------

A/------------------------------------

E/------------------------------------



E/------------------------------------

B/-10-9---5b7---10--5-----------------

G/------------------------------------

D/------------------------------------

A/------------------------------------

E/------------------------------------



E/------------------------------------

B/-10-9---5b7--10-9-------------------

G/------------------------------------

D/------------------------------------

A/------------------------------------

E/------------------------------------

Letra subida por: Anónimo

Discos en los que aparece este acorde: Brindaremos

El acorde de Brindaremos de Pier es una versión de la canción original realizada por colaboradores/usuarios de Coveralia.

¿Has encontrado algún error en esta página? Envíanos tu corrección del acorde