música
Buscador

Acorde de Break Your Little Heart - All Time Low

Letra de Break Your Little Heart

Intro - F# G# A# -  riff C#m G# F#



e|----------------------------------|

B|----------------------------------|

G|-------------4--------------------|

D|--4--6--8----4--6-----------------|

A|--4--6--8----2--6-----------------|

D|--2--4--6-------4-----------------|





Acoustic Guitar 2

e|--------------|----------------|------------------|

B|--------------|----------------|------------------|

G|--------------|----------------|------------------|

D|----6--4--3---|--6--4--3-------|------------------|

A|--------------|-----------6--4-|--6--4-3----------|

E|--------------|----------------|----------8--6----|





Verse:

F#

Wide awake, my mistake

C#m G#

So predictable

F#

You were fake, I was great

C#m G#

Nothing personal



F#

I'm walking

G#

Who's laughing now?

A# C#m - G#

(Who's laughing, who's laughing now?)

F# C#m G#

I'm wasted, wasting time

F#

You talk for hours

C#m G#

But you're wasting lines

F# G#

A pretty face but the chase

A# (Break)

Ain't worth the prize



Chorus: C#m G# A# F#

I'm gonna break your little heart

Watch you take the fall

Laughing all the way to the hospital

'Cause there's nothing surgery can do

When I break your little heart in two

I'm gonna break your little heart in two



Sames as the first

Party queen, cause a scene

http://www.coveralia.com/acordes/break-your-little-heart-all-time-low.php

So ridiculous

Little dress, maybe less

So conspicuous



You're falling

Who's crashing now?

(Who's crashing, who's crashing now?)

I'm wasted, wasting time

I'm moving on

But you're left behind

A pretty face with the chace

Ain't worth the price



Chorus: C#m G# A# F#

I'm gonna break your little heart

Watch you take the fall

Laughing all the way to the hospital

'Cause there's nothing surgery can do

I'm gonna break your little heart

Show you to the door

Sew yourself shut

Now you're begging for more

'Cause there's nothing surgery can do

When I break your little heart in two



Outro: A# F# C#m G#

Don't be so sentimental, no

This is love is accidental, so

Give it up

This was never meant to be

More than a memory for you



Solo:

e|-------------------------------------------------------------------------|

B|-------------------------------------------------------------------------|

G|-131313------------131313------------13-----13------13-----13-----13/18~-|

D|-------101010-1111-------101010-1111---10h11--10h11---10h11--10h11-------|

A|-------------------------------------------------------------------------|

D|-------------------------------------------------------------------------|



Chorus: C#m G# A# F#

I'm gonna break your little heart

Watch you take the fall

Laughing all the way to the hospital

'Cause there's nothing surgery can do

(When I break your little heart in two)

I'm gonna break your little heart

Show you to the door

Sew yourself shut

Now you're begging for more

'Cause there's nothing surgery can do

When I break your little heart in two





Letra subida por: Anónimo

Discos en los que aparece este acorde: Straight To Dvd , Nothing Personal

El acorde de Break Your Little Heart de All Time Low es una versión de la canción original realizada por colaboradores/usuarios de Coveralia.

¿Has encontrado algún error en esta página? Envíanos tu corrección del acorde