música
Buscador

Acorde de Boys Say Go - Depeche Mode

Letra de Boys Say Go

Intro (0:09) 



Boys say go! Boys say go!

Boys say go! Boys say go!



0:16

e-----------------------------|

b-----------------------------|

g------------3----------------|

d--3-5-5-3-5-----3-5-5-3-5-0--|

a-----------------------------|

e-----------------------------|







Verse (0:23)



G

You don’t understand this is in demand

C G

And I think that I have to show you

G

Try to look inside take me for a ride

C G

In the day and the night get to know you







Chorus (0:37)



C G

Boys meet boys get together

C G

Boys meet boys it’s forever

C D

Don’t say no! Boys say go!



ocultar esta pestaña

e-----------------------------|

b-----------------------------|

g------------3----------------|

d--3-5-5-3-5-----3-5-5-3-5-0--|

a-----------------------------|

e-----------------------------|







Verse (0:55)



G

I could run away if you never stay

C G

In the rain and the pain and the sorrow

G

I’m not very sure when you close the door

C G

If the end it’s the same as tomorrow







Chorus (1:09)



http://www.coveralia.com/acordes/boys-say-go-depeche-mode.php

C G

Boys meet boys get together

C G

Boys meet boys it’s forever

C D

Don’t say no! Boys say go!







Bridge (1:20)



G D# G D# G D# G D#

Boys!

G D# G D

Boys!

D# F F F

Boys!

G D# G D

Boys!

D# F F F

Boys say go!



ocultar esta pestaña

1:54

e-----------------------------|

b-----------------------------|

g------------3----------------|

d--3-5-5-3-5-----3-5-5-3-5-0--| x4

a-----------------------------|

e-----------------------------|







Verse (2:08)



G

You don’t understand this is in demand

C G

And I think that I have to show you

G

Try to look inside take me for a ride

C G

In the day and the night get to know you







Chorus (2:22)



C G

Boys meet boys get together

C G

Boys meet boys it’s forever

C D

Don’t say no! Boys say go!







Outro (2:33)



G D# G D# G D# G D#

Go, go, go, go… (repeat to fade out)

Letra subida por: Anónimo

Discos en los que aparece este acorde: Speak & Spell (1988)

El acorde de Boys Say Go de Depeche Mode es una versión de la canción original realizada por colaboradores/usuarios de Coveralia.

¿Has encontrado algún error en esta página? Envíanos tu corrección del acorde