música
Buscador

Acorde de Boca Rosa - Angela Carrasco

Letra de Boca Rosa

INTRO





G#m E B C#m D#



G#m E G#m E G#m F# F# B F# B F# B

e -------------------------------------------------------------------------

B ---4-4-4-5----4-4-4-5----4-4-4-4--2----2-2-2-4----2-2-2-4----2-2-2-2-----

G ----------------------------------------------------------------------4--

D -------------------------------------------------------------------------

A -------------------------------------------------------------------------

E -------------------------------------------------------------------------

B C#m B C#m B D# D# F# G#m E G#m

e ---------------------------------------------2-----2-3-4-4-7--4----------

B ---------2----------2------------------4-4-4---4-------------------------

G ---4-4-4------4-4-4------4-4-4-4--3--------------------------------------

D -------------------------------------------------------------------------

A -------------------------------------------------------------------------

E -------------------------------------------------------------------------

D# F# G#m F# G#m

e ---------2---2-3-4-4-2-4------

B ---4-4-4---4------------------

G ------------------------------

D ------------------------------

A ------------------------------

E ------------------------------





D# G#m B E

Vendo una boca rosa, ¿quién me la puede pagar?

D# G#m B

Buscas unos labios rojos, que estén locos por besar.

F# D# G#m C#m E D#

Y tú, hombre necio, desprecias un amor que vale una vida.



CORO

G#m C#m E

Amor que paga caro el corazón ,

F# D#m G#m

es un volcán que nos atrapa con su fuego.

G#m C#m E C#m

Amor que nunca escucha la razón,

G#m D#

desnuda tu mente.





G#m E B C#m





D# G#m B E

Besos, mentiras piadosas que no puedes soportar.

D# G#m B

Mira, no me agobies tanto, en mi agenda hay otros más.

F# D# G#m C#m E D#

Y tú, hombre necio, caíste en una trampa hecha de labios.

http://www.coveralia.com/acordes/boca-rosa-angela-carrasco.php



CORO

G#m C#m E

Amor que paga caro el corazón ,

F# D#m G#m

es un volcán que nos atrapa con su fuego.

G#m C#m E C#m

Amor que nunca escucha la razón,

G#m D#

desnuda tu mente.



G#m E G#m E G#m F# F# B F# B F# B

e -------------------------------------------------------------------------

B ---4-4-4-5----4-4-4-5----4-4-4-4--2----2-2-2-4----2-2-2-4----2-2-2-2-----

G ----------------------------------------------------------------------4--

D -------------------------------------------------------------------------

A -------------------------------------------------------------------------

E -------------------------------------------------------------------------

B C#m B C#m B D# D# F# G#m E G#m

e ---------------------------------------------2-----2-3-4-4-7--4----------

B ---------2----------2------------------4-4-4---4-------------------------

G ---4-4-4------4-4-4------4-4-4-4--3--------------------------------------

D -------------------------------------------------------------------------

A -------------------------------------------------------------------------

E -------------------------------------------------------------------------

D# F# G#m F# G#m

e ---------2---2-3-4-4-2-4------

B ---4-4-4---4------------------

G ------------------------------

D ------------------------------

A ------------------------------

E ------------------------------



F# D# G#m C#m E D#

Y tú, hombre necio, caíste en una trampa hecha de labios.





CORO

G#m C#m E

Amor que paga caro el corazón ,

F# D#m G#m

es un volcán que nos atrapa con su fuego.

G#m C#m E C#m

Amor que nunca escucha la razón,

G#m D#

desnuda tu mente.



G#m C#m E C#m

Amor que nunca escucha la razón.....

G#m D# G#m

desnuda tu mente.





Letra subida por: Anónimo

Discos en los que aparece este acorde: Boca Rosa , Viva La Diva

El acorde de Boca Rosa de Angela Carrasco es una versión de la canción original realizada por colaboradores/usuarios de Coveralia.

¿Has encontrado algún error en esta página? Envíanos tu corrección del acorde