música
Buscador

Acorde de Blues Del Espejo - Gritando En Silencio

Letra de Blues Del Espejo



Intro:

C6 E7 Am E7

|-5-5--4/5-5--------------------------5-5--4/5-5-------------------------|

|-5-5--4/5-5--------7-7--6/7-7--------5-5--4/5-5--------7-7--6/7-7-------|

|-5-5--4/5-5--------9-9--9/9-9--------5-5--4/5-5--------9-9--9/9-9-------|

|-5-5--4/5-5-x-x-x--8-8--7/8-8-x-x-x--7-7--6/7-7-x-x-x--8-8--7/8-8-x-x-x-|

|-3-3--2/3-3-x-x-x--9-9--8/9-9-x-x-x--7-7--6/7-7-x-x-x--9-9--8/9-9-x-x-x-|

|------------x-x-x-------------x-x-x--5-5--4/5-5-x-x-x-------------x-x-x-|



Dm7 Am D9 E7 G7b13

|-5-5--4/5-8-7-5---5-5--4/5-5-------------------------------------------|

|-6-6--5/6-6-6-6---5-5--4/5-5---------5-5--4/5-5--------7-7-7-7-7-7---4-|

|-5-5--4/5-5-5-5---5-5--4/5-5---------5-5--4/5-5--------9-9-9-9-9-9---4-|

|-7-7--6/7-7-------7-7--6/7-7-x-x-x---4-4--3/4-4-x-x-x--8-8-8-8-8-8---3-|

|-5-5--4/5-5-------7-7--6/7-7-x-x-x---5-5--4/5-5-x-x-x--9-9-9-9-9-9---x-|

|------------------5-5--4/5-5-x-x-x--------------x-x-x----------------3-|



(ahora igual que el intro pero con la letra)



C6

Pobre corazon

E7

que has malgastado tu vida tocando,

Am

que haces hoy ahi,

E7

tras el espejo que estoy mirando

Dm7

cuentan que la vida

Am

no te ha tratado como mereces

D9

mucho menos las mujeres

E7 G7b13

que te encierran en sus trece



C6

cuentame el sabor

E7

de aprender de los errores

Am

ahora que el calor

E7

en mi cama es un recuerdo,

Dm7

me he encontrado a mi

Am

y he extraviado los amores

D9

y el sentido comun

E7 G7b13

es de lo poco que no pierdo





C6

tu y tu no dudar

E7

y los problemas que nos inventamos

Am

no sirve el buscar ser feliz

E7

y encima puede que te destroce

Dm7

miro para atras

Am

y me da pena que haya sido en vano

D9

la triste realidad

E7 G7b13

es que estoy solo otra noche.





http://www.coveralia.com/acordes/blues-del-espejo-gritando-en-silencio.php

Am E7

ahora que muero si la hecho de menos

Am E7

ahora qu eni en broma me coges sereno

Dm7 C6

pienso en el tiempo que pase contigo

E7 G7b13 X X X

y prefiero hundirme en el cieno

Am E7

ahora que muerdo y que trago saliva

Am E7

que soy perro viejo y la suerte me esquiva

Dm7 C6

pienso en el tiempo que pase contigo

E7 E7

y marcho a la deriva



C6

no busco en el blues

E7

el consuelo que dan los abrazos

Am

pero miento al decir

E7

que no la recuerdo cuando apuro el vaso

Dm7

poco le ha acostado

Am

olvidarse de que la queria

D9

ayer tuve 1 sueño y me ha dado esperanzas

E7 G7b13

soñé que no volvias,



Solo Am E7 Am E7 Dm7 C6 E7 G7b13 (Igual que el coro)



C6

este es el final

E7

de la cancion que canto al espejo

Am

hoy voy a matar

E7

lo que queda de mi reflejo

Dm7

este es el final

Am

de la cancion de los desconsolados

D9

de los que solo se consuelan

E7 G7b13

por saber que no han llorado



Am E7

ahora que muero si la hecho de menos

Am E7

ahora qu eni en broma me coges sereno

Dm7 C6

pienso en el tiempo que pase contigo

E7 G7b13 X X X

y prefiero hundirme en el cieno

Am E7

ahora que muerdo y que trago saliva

Am E7

que soy perro viejo y la suerte me esquiva

Dm7 C6

pienso en el tiempo que pase contigo

E7

hoy voy a matar, lo que queda de mi reflejo.





Letra subida por: Anónimo

Discos en los que aparece este acorde: Contratiempo

El acorde de Blues Del Espejo de Gritando En Silencio es una versión de la canción original realizada por colaboradores/usuarios de Coveralia.

¿Has encontrado algún error en esta página? Envíanos tu corrección del acorde