música
Buscador

Acorde de Blue Sky - The Allman Brothers Band

Letra de Blue Sky

E   A   E   A   E   D  A   E 



E B A E B

Walk along the river, swee lullaby, it just keeps on flowing,

A E A

It don't worry 'bout where it's going, no, no.

E B A E

Don't fly, mister blue bird, I'm just walking down the road,

B A E A

Early morning sunshine tell me all I need to know





CHORUS

B A E A

You're my blue sky, you're my sunny day.

B A E A

Lord, you know it makes me high when you turn your love my way,

F#m7 E

- Turn your love my way, yeah.





E A E A E B C# A5





E B A E

Good old sunday morning, bells are ringing everywhere.

B A E A

Goin to Carolina, it won't be long and I'll be there





CHORUS





E A E A E D A A5 E





2 VERSÃO



ocultar esta pestaña Intro (/outro):

E A E A E D A E

|------------------7h9-12-9-7--------------------------|

|-----------5-7/9---------------------9----------------|

|-------4h6---------------------9--9----9h11p9--------*|

|-2-4/6-------------------------------------------11--*|

|------------------------------------------------------|

|------------------------------------------------------|





|----------------------------|

|-9-7-5----------------------|

|--------6-------------------|

|----------9-----------------|

|----------------------------|

|----------------------------|

E B A E B

Walk along the river, sweet lullaby, it just keeps on flowing,

A E A

It don't worry 'bout where it's going, no, no.

http://www.coveralia.com/acordes/blue-sky-the-allman-brothers-band.php

|-------------------------------|

|-7b-r-5------------------------|

|--------6-4--------------------|

|------------6-4-6--------------|

|------------------7-4h7-7-7----|

|-------------------------------|



E B A E

Don't fly, mister blue bird, I'm just walking down the road,

B A E A

Early morning sunshine tell me all I need to know

|-----------------------7h9-7------|

|-------------------5-7-------9----|

|---------------4-6----------------|

|-----2-4p2h4/6--------------------|

|-2-4------------------------------|

|----------------------------------|











CHORUS

B A E A

You're my blue sky, you're my sunny day.

B A E A

Lord, you know it makes me high when you turn your love my way,

F#m7 E

- Turn your love my way, yeah.





Solo:?

E A E A E B C# A5







E B A E

Good old sunday morning, bells are ringing everywhere.

B A E A

Goin to Carolina, it won't be long and I'll be there

|-----------------------7h9-7------|

|-------------------5-7-------9----|

|---------------4-6----------------|

|-----2-4p2h4/6--------------------|

|-2-4------------------------------|

|----------------------------------|







CHORUS







E A E A E D A A5 E





Letra subida por: Anónimo

¿Has encontrado algún error en esta página? Envíanos tu corrección del acorde