música
Buscador

Acorde de Blow Away - George Harrison

Letra de Blow Away

INTRO: 



|------------------------------10---9---9-----------------------------10---10/12---12/14------------------------|

|---10---12\10-------------------------------------10/12---10----------------------------------14---10--------|

|---------------------11------------------------11-----------------------------------------------------------------9---|

|--------------------------------------------------------------------------------------------------------------------------|

|--------------------------------------------------------------------------------------------------------------------------|

|--------------------------------------------------------------------------------------------------------------------------|







D Bm

Wind blew in, sky turned to black

F#m A

Rained for years til it dampened my heart

D Bm

Cracks and leaks, the floor boards caught rot

F#m A

About to go down, I had almost forgot





D Bm F#m A

All I gotta do is to, is to love you

D Bm F E

All I gotta be is to, be happy

D Bm F#m A

All it's gotta take is some warmth to make it

F C A

Blow away, blow away, blow away



D Bm F#m A

All I gotta do is to, is to love you

D Bm F E

All I gotta be is to, be happy

D Bm F#m A

All it's gotta take is some warmth to make it

F C D

Blow away, blow away, blow away





Sky cleared up, day turned to bright

Closing bothe eyes, now the head filled with light

Hard to remember the state I was in

http://www.coveralia.com/acordes/blow-away-george-harrison.php

Instant amnesia, yang to the yin



Chorus



Wind blew in, cloud was dispersed

Rainbows appearing, the pressure was burst

Breezes a singing, now feeling good

The moment had passed like I knew that it should



Chorus







This is played after the Chorus:



|--------------------------------------------------|

|--------------------------------------------------|

|--------------------------9---7------------------|

|---------------7---10-------------10\7---7---|

|---8---10---------------------------------------|

|--------------------------------------------------|







SOLO:





|-----------------------------------------------------------------|

|----------------------------------------------------------10----|

|----------------------9--7--------------------------------------|

|------------7--10-----------10\7--7----11\9--7-----------|

|---8--10-------------------------------------------------------|

|-----------------------------------------------------------------|





|--------17--14---------------------------------10-------------------------------------------------|

|--15--------------15---------------------------------p13h12---p13h12---10----------------|

|--------------------------14--------11\9--7-----------------------------------------12---11---|

|------------------------------------------------------------------------------------------------------|

|------------------------------------------------------------------------------------------------------|

|------------------------------------------------------------------------------------------------------|

Letra subida por: Anónimo

El acorde de Blow Away de George Harrison es una versión de la canción original realizada por colaboradores/usuarios de Coveralia.

¿Has encontrado algún error en esta página? Envíanos tu corrección del acorde