música
Buscador

Acorde de Billy Joe - Agua Bendita

e||------------------------------------------------------------------| 

B||------------------------------------------------------------------|

G||------------------------------------------------------------------|

D||------2-----5-5---------------------------------------------------| X 5

A||--3-3-3-3-3-3-3-------0-----3-3-------2-----5-5-------0-----3-3---|

E||------------------1-1-1-1-1-1-1---3-3-3-3-3-3-3---1-1-1-1-1-1-1---|





e||--------------------------------------------------------------------|

B||--------------------------------------------------------------------|

G||--------------------------------------------------------------------|

D||------2-----5-5-----------------------------------------------------|

A||--3-3-3-3-3-3-3-------0-----3-3-------2-----4-4---------0-----3-3---|

E||------------------1-1-1-1-1-1-1---3-3-3-3-3-3-3-----1-1-1-1-1-1-1---|

Esto es una canción popular que la hemos hecho para protestar

e||------------------------------------------------------------------|

B||------------------------------------------------------------------|

G||------------------------------------------------------------------|

D||------2-----5-5---------------------------------------------------| X 5

A||--3-3-3-3-3-3-3-------0-----3-3-------2-----5-5-------0-----3-3---|

E||------------------1-1-1-1-1-1-1---3-3-3-3-3-3-3---1-1-1-1-1-1-1---|

Billy Joe ya no es el vaquero sinó ahora el barriobajero



C F

Esto es una canción popular

G F

que la hemos hecho para protestar

C F

Billy Joe ya no es el vaquero

G F

sinó el barriobajero



C F

Billy Joe nació en un barrio muy pequeño

G F

que le enseñó a vivir sin dinero

C F

Billy Joe ya fumaba hachís

G F

y de vez en cuando una rallita de spiz. Spiz!



C F G F C F G F



C F

Ya todos los sábados solía salir

G F

y nunca le faltaba su cuartito de spiz

C F

y al cabo de un tiempo fue ya todos los días

G F

y yo como amigo siempre le repetía:



C F

Billy Joe, ¡déjalo!

G F

http://www.coveralia.com/acordes/billy-joe-agua-bendita.php

Billy Joe, ¡déjalo!

C F

Él me contestaba que 'Lo quiero dejar'

G F

Pero siempre hay algo que celebrar.



C F G F C F G F



C F

Billy Joe, no te metas tanto spiz,

G F

que te vas a romper la nariz!

C F

Billy Joe, no te metas tanto spiz,

G F

que te vas a romper la nariz!



C F G F



C F

Billy Joe tuvo malas compañías

G F

y estuvo raro algunos días

C F

Billy Joe se montó en el caballo

G F

levantó el brazo y dijo adiós a la vida!



C F

Una mañana cuando yo dormía

G F

en su casa un coche policia

C F

Billy Joe, tumbado en la camilla,

G F

había muerto: sobredosis de heroina!



C F

Heroina, heroina,

G F

heroina, asesina!

C F

Heroina, heroina,

G F

heroina que el gobierno patrocina



C F

Heroina, heroina,

G F

heroina, asesina!

C F

Heroina, heroina,

G F C#

heroina que el gobierno patrocina

Letra subida por: Anónimo

Discos en los que aparece este acorde: Agua Bendita

El acorde de Billy Joe de Agua Bendita es una versión de la canción original realizada por colaboradores/usuarios de Coveralia.

¿Has encontrado algún error en esta página? Envíanos tu corrección del acorde