música
Buscador

Acorde de Battery In Your Leg - Blur

Letra de Battery In Your Leg





intro slowly: C,G6,Fmaj7





C G6 Fmaj7

This is a ballad for the good times

C G6 Fmaj7

So put a battery in your leg

C G6 Fmaj7

Put a rock beat on the record

C G6 F

And get it stuck there in your head

G

You can be with me



The same as first verse: C, G6, Fmaj7





I've got nothing to rely on

I've broken every bone

Everybody's stopped believing

But you know you're not alone

G

You can be with me



Here is bridge on chords: C,G,F and solo:



E----------------------------------------------------------|

http://www.coveralia.com/acordes/battery-in-your-leg-blur.php

B--6-5------------------------------6-5--------------------|

G------4-5------------------------------4-5----------------| x2

D----------5-3-2----------------------------5-3------------|

A----------------3-----------------------------------------|

E-----------------3-1-0-1-3--------------------------------|



The same chords as in first and second verse:



This is a ballad for the good times

Another dignity we held

Don't get better ...........

And you ain't coming back

You can be with me

If you want to be

You can be with me



Bridge and solo the same. Chords used:



C G6 Fmaj7 G F

E--0--|--0--|--0--|--3--|--1--|

B--1--|--3--|--1--|--3--|--1--|

G--0--|--0--|--2--|--0--|--2--|

D--2--|--0--|--3--|--0--|--3--|

A--3--|--2--|--3--|--2--|--3--|

E-----|--3--|-----|--3--|--1--|





Letra subida por: Anónimo

Discos en los que aparece este acorde: Think Tank , Midlife: A Beginner's Guide To Blur

El acorde de Battery In Your Leg de Blur es una versión de la canción original realizada por colaboradores/usuarios de Coveralia.

¿Has encontrado algún error en esta página? Envíanos tu corrección del acorde