música
Buscador

Acorde de Barrunto - Hector Lavoe

Letra de Barrunto

Intro: (2 veces)
   Fm                       C#    D#     Fm
e|-------------------------------------------|
B|-6-8-9.-8-6----6-8-9.-8-6-----9-8.-6---6.--|
G|----------------------------6--------8-----|
D|-------------------------------------------|
A|-------------------------------------------|
E|-------------------------------------------|

Fm
Barrunto en mi corazón,
presentimiento de que pronto llegará la separación.

    Bbm                 Fm
Si ayer fue felicidad hoy es tristeza
                              C#          C
pero qué angustia, melancolía,    desilusión.

      Bbm                     Fm
Como cuando hay la sensación de agua con viento
                               C                 Fm
tengo ya el presentimiento barrunto en mi corazón.


                     Bbm        C               Fm
Tengo ya el presentimiento, barrunto en mi corazón
                        Bbm         C           Fm
oye yo tengo el presentimiento, barrunto en mi corazón.
                     Bbm        C               Fm
Tengo ya el presentimiento, barrunto en mi corazón
                              Bbm  C               Fm
nadie comprende lo que sufro yo, lloro que ya no puedo sollozar.
                     Bbm        C               Fm
Tengo ya el presentimiento, barrunto en mi corazón
                        Bbm  C            Fm
ay mamita buena de mi vida, ven, dame un beso de amor
                     Bbm        C               Fm
Tengo ya el presentimiento, barrunto en mi corazón
                Bbm        C           Fm
hey! tú te portas mal porque él te adoró.   Soba mami!.


         Bbm                 Fm
e|---------------------------------------
B|---------------------------------------
G|-5-6-5-5-------5-6----6-5-----------5--
D|---------8-7-8------------8-6-5-6-8----
A|---------------------------------------
E|---------------------------------------

   C           Fm
e|----------------|
B|----------------|
G|-3.---6.-5-3-5.-|
D|----5-----------|
A|----------------|
E|----------------|

         Bbm                 Fm
e|---------------------------------------
B|---------------------------------------
G|-5-6-5-5-------5-6----6-5-----------5--
D|---------8-7-8------------8-6-5-6-8----
A|---------------------------------------
E|---------------------------------------

  F#    C      Fm            Fm
e|---------------------------8---|
B|---------------------------9---|
G|----3-5------------10-8-10-10--|
D|-4.-----2-3-5-3.---------------|
A|-------------------------------|
E|-------------------------------|



                     Bbm        C               Fm
Tengo ya el presentimiento, barrunto en mi corazón
                                 Bbm                 C        Fm
hey! que yo en el alma siento un dolor y aquí en la mente una confusión.
                     Bbm        C               Fm
Tengo ya el presentimiento, barrunto en mi corazón
                    Bbm          C                  Fm
ay que gotitas de dolor derramadas al brindar por tu abandono.


Bbm - C - Fm

Fm - Bbm - C - Fm (x10)


  Fm     Bbm    C          Fm   (x3)
e|-----------------------------|
B|-6---4----------------5-5-6--|
G|---5---6-3----5-5-5-5--------|
D|-----------------------------|
A|-----------------------------|
E|-----------------------------|


  Fm     Bbm          C              Fm  (x3)
e|-----3-4-3---3------3-3-3-3-3-3---3-4-|
B|---6-------6--------------------6-----|
G|-5-------------6----------------------|
D|--------------------------------------|
A|--------------------------------------|
E|--------------------------------------|

  Fm     Bbm          C              Fm  Bbm  C       Fm
e|-----3-4-3---3------3-3-3-3-3-3---3-4..-----4-4-6-6-8.-|
B|---6-------6--------------------6----------------------|
G|-5-------------6---------------------------------------|
D|-------------------------------------------------------|
A|-------------------------------------------------------|
E|-------------------------------------------------------|


Fm - Bbm - C - Fm


Fm                   Bbm        C               Fm
Tengo ya el presentimiento, barrunto en mi corazón
                             Bbm       C            Fm
eeh, siento una pena me 'ta matando, lágrimas me van bajando
                     Bbm        C               Fm
Tengo ya el presentimiento, barrunto en mi corazón
                        Bbm      C        Fm
eeh, barrunto en mi corazón, barrunto, pena y dolor. Soba otra vez!


         Bbm                 Fm
e|---------------------------------------
B|---------------------------------------
G|-5-6-5-5-------5-6----6-5-----------5--
D|---------8-7-8------------8-6-5-6-8----
A|---------------------------------------
E|---------------------------------------

   C           Fm
e|----------------|
B|----------------|
G|-3.---6.-5-3-5.-|
D|----5-----------|
A|----------------|
E|----------------|

         Bbm                 Fm
e|---------------------------------------
B|---------------------------------------
G|-5-6-5-5-------5-6----6-5-----------5--
D|---------8-7-8------------8-6-5-6-8----
A|---------------------------------------
E|---------------------------------------

  F#    C      Fm
e|------------------|
B|------------------|
G|----3-5-----------|
D|-4.-----2-3-5-3.--|
A|------------------|
E|------------------|



         Bbm                     Fm
LA LA LA LA LA ra LA ra LA LA LA LA LA ra LA ra LA
C               Fm
LA LA LA LA LA LA
         Bbm                     Fm
La ra ra la la ra la ra la la la la la ra la ra la
F#    C            Fm
la la la la la la la, y vuelve otra vez!

         Bbm                     Fm
LA LA ra LA LA ra LA ra LA LA LA LA LA ra LA ra LA
C               Fm
LA LA LA LA LA LA
         Bbm                     Fm
La ra la la la ra la ra la la la la la ra la ra la
F#    C            Fm
LA LA LA LA LA LA LA, y viene LA...


         Bbm                 Fm
e|---------------------------------------
B|---------------------------------------
G|-5-6-5-5-------5-6----6-5-----------5--
D|---------8-7-8------------8-6-5-6-8----
A|---------------------------------------
E|---------------------------------------

   C           Fm
e|----------------|
B|----------------|
G|-3.---6.-5-3-5.-|
D|----5-----------|
A|----------------|
E|----------------|

         Bbm                 Fm
e|---------------------------------------
B|---------------------------------------
G|-5-6-5-5-------5-6----6-5-----------5--
D|---------8-7-8------------8-6-5-6-8----
A|---------------------------------------
E|---------------------------------------

  F#    C      Fm            Fm
e|---------------------------8---|
B|---------------------------9---|
G|----3-5------------10-8-10-10--|
D|-4.-----2-3-5-3.---------------|
A|-------------------------------|
E|-------------------------------|


Letra subida por: Anónimo

El acorde de Barrunto de Hector Lavoe es una versión de la canción original realizada por colaboradores/usuarios de Coveralia.

¿Has encontrado algún error en esta página? Envíanos tu corrección del acorde