música
Buscador

Acorde de Bitchcraft (Caravan Palace Remix) - Drake Bell

Letra de Bitchcraft (Caravan Palace Remix)



Tuning: E (Standard)



CHORDS USED [in order of first appearance]:

Gm6 Cm6 Gm D#7 D7 F D D# Bb A7

e]---x----x----3----6----5----x----x----x----x----x---|

B]---3----8----3----8----7----10---7----8----3----2---|

G]---3----8----3----6----5----10---7----8----3----0---|

D]---2----7----5----8----7----10---7----8----3----2---|

A]---x----x----5----6----5----8----5----6----1----0---|

E]---3----8----3--------------------------------------|







INTRO:

[Gm]

e]------------------|------------------|

B]------------------|------------------|

G]------------------|------------------|

D]------------------|------------------| (x2)

A]------5-------6-5-|-----5-------6-5--|

E]--3-6-----3-6-----|-3-6-----3-6------|







VERSE 1 [Bass playing over Gm]:

(Gm6)

I didn't know you collected souls



Gambling fire, rolling bones



I should've known that you would take it all



But I never planned to be your voodoo doll







PRE-CHORUS 1:

Cm6 Gm

Use your lips to pull me in, just stick in another pin

Cm6

But if you want this heart of mine

D#7 D7

Your evil just won't work this time







CHORUS 1:

Gm Cm6

I'm done with all your bitchcraft, gotta get my soul back

F D Gm

We've played this game so long I'm not sure that it will come back

Cm6

I'm not trying to make you feel bad

F D [Gm]

But baby I just can't live with all your bitchcraft







TRANSITION 1:

[Gm]

e]------------------|------------------|

B]------------------|------------------|

G]------------------|------------------|

D]------------------|------------------|

A]------5-------6-5-|-----5-------6-5--|

E]--3-6-----3-6-----|-3-6-----3-6------|







VERSE 2:

Gm Gm6

Every time you cast another spell

(Gm6)

I lose a little more of my free will

Gm

Put me in a kettle full of broken hearts and add a little pinch from magic jar

Gm

Just so I forget the kind of girl you are







PRE-CHORUS 2:

Cm6 Gm

Baby, I'm catching on real fast, this isn't gonna last

Cm6

And I'm through eatin' your poison seeds

http://www.coveralia.com/acordes/b----craft--caravan-palace-remix--drake-bell.php

D#7 D7

And I've built up my immunity







CHORUS 2:

Gm Cm6

I'm done with all your bitchcraft, gotta get my soul back

F D Gm

We've played this game so long I'm not sure that it will come back

Cm6

I'm not trying to make you feel bad

F D [Gm]

But baby I just can't live with all your bitchcraft







TRANSITION 2:

[Gm]

e]------------------|------------------|

B]------------------|------------------|

G]------------------|------------------|

D]------------------|------------------|

A]------5-------6-5-|-----5------------|

E]--3-6-----3-6-----|-3-6-----3--------|



SOLO:

||: Gm6 / / / | Cm6 / / / | F / D / | Gm6 / / / |

| Gm6 / / / | Cm6 / / / | F / D / | Gm6 / / / :||







BRIDGE:

D# D

Baby, why you gotta act like that'

D# D

You're not the girl that I thought I had

D# D Bb A7

I guess I thought I knew who you were and it's a

D#7 D7

Drag knowing you're so quick to kill

D#7 D7

It's the only way you get your thrills

D#7 D7 Bb A7 [Gm]

But baby I'm about to show you how it feels







TRANSITION 3:

[Gm]

e]------------------|------------------|

B]------------------|------------------|

G]------------------|------------------|

D]------------------|------------------|

A]------5-------6-5-|-----5-------6-5--|

E]--3-6-----3-6-----|-3-6-----3-6------|







CHORUS 3 [extended]:

Gm Cm6

'Cause I'm done with all your bitchcraft, gotta get my soul back

F D Gm

We've played this game so long I'm not sure that it will come back

Cm6

I'm not trying to make you feel bad

F D Gm Cm6 F D

But baby I just can't live with all your bitchcraft

Gm Cm6

I'm not trying to make you feel bad, gotta get my soul back

F D [Gm]

But baby I just can't live with all your bitchcraft







OUTRO:

[Gm] Gm6

e]------------------|------------------||------------------|------------------||--x--|

B]------------------|------------------||------------------|------------------||--3--|

G]------------------|------------------||------------------|------------------||--3--|

D]------------------|------------------||------------------|------------------||--2--|

A]------5-------6-5-|-----5-------6-5--||------5-------6-5-|-----5p3----------||--x--|

E]--3-6-----3-6-----|-3-6-----3-6------||--3-6-----3-6-----|-3-6-----6-3------||--3--|







Letra subida por: Anónimo

Discos en los que aparece este acorde: Bitchcraft (Caravan Palace Remix) (Cd Single)

El acorde de Bitchcraft (Caravan Palace Remix) de Drake Bell es una versión de la canción original realizada por colaboradores/usuarios de Coveralia.

¿Has encontrado algún error en esta página? Envíanos tu corrección del acorde