música
Buscador

Acorde de Aya - Black Rebel Motorcycle Club

Letra de Aya



Chords for verse:

E F#

E||--0----2--|

B||--0----2--|

G||--1----3--|

D||--2----4--|

A||--2----4--|

E||--0----2--|



Chords for refrain:

C# A E B F#

E||--4----5----0----7----2--|

B||--5----5----0----7----2--|

G||--6----6----1----8----3--|

D||--6----7----2----9----4--|

A||--4----7----2----9----4--|

E||-------5----0----7----2--|



Verse 1:

F#

She's a reckless lover with blood stained hands

E F#

'round the neck of her, helpless man

F#

She's the midnight silence, an outbound train

E F#

She's the glory of fallen names



Chorus:

F# F#

Aya, Aya

F# E

We're alone

E F#

There's no room here anymore

F# F#

Aya, Aya

F# E

We're alone

E F#

And there's no room here anymore



Verse 2:

F#

She's a patient killer, a timeless hand

E F#

The choke of the falling sands

F#

She's a proven saint with a witche's tongue

http://www.coveralia.com/acordes/aya-black-rebel-motorcycle-club.php

E F#

The gods of war at her command



Bridge:

C# A E

Sweet Aya bring it on

E B C#

I wanna kiss you till they're gone

C# A E

Sweet Aya bring it on

E B F#

I wanna kiss you till they're gone

F# E

Till they're all gone



Chorus x1



Solo over Verse:



e|---------------------------------------------------------------------------|

B|---------------------------------------------------------------------------|

G|-5b6----5b6br-5b6br-5b6br--2----5b6br--2----5b6br-5b6br-5b6br--------------|

D|-----------------------------4-----------2--------------------4------------|

A|---------------------------------------------------------------------------|

E|---------------------------------------------------------------------------|



e|---------------------------------------------------------------------------|

B|---------------------------------------------------------------------------|

G|-5b6--5b6---5b6br-5b6br-5b6br--2-----5-5b6br------5b6br-5b6br--2-----------|

D|---------------------------------4------------2------------------4---------|

A|---------------------------------------------------------------------------|

E|---------------------------------------------------------------------------|



Verse 3

F#

She's the broken shadows on the fallen walls

E F#

With no master there's no call

F#

She's the faithful silence that visits all

E F#

With no mercy, no remorse



Chorus x1



Bridge x1



Chorus x2



Letra subida por: Anónimo

Discos en los que aparece este acorde: Beat The Devil's Tattoo

El acorde de Aya de Black Rebel Motorcycle Club es una versión de la canción original realizada por colaboradores/usuarios de Coveralia.

¿Has encontrado algún error en esta página? Envíanos tu corrección del acorde