música
Buscador

Acorde de Ausencia - Horcas

Letra de Ausencia

Afinar en Re (D) la viola

Intro:

1|-----------0-------0------------0------12*-13*-----------0-------0------------0-----

2|---------0---0---0---0--------0---0----12*-------------0---0---0---0--------0---0---

3|-------0-------0------------0-------0--12*-----------0-------0------------0-------0-

4|-----9--------------------7-----------0------------9--------------------7-----------

5|---7--------------------5------------------------7--------------------5-------------

6|-0---------------------------------------------0------------------------------------



---------0--------------|

-------0---0------------|Esto tambien

-----0-------0----------|va en el Riff 1

---5-----------0--------|

-3----------------------|

------------------------|



Riff 2:

1|-------------------------|

2|-------------------------|

3|-------------------------|

4|-9-7-8--9-9--7-5-7--7-7--|

5|-7-5-7--7-7--5-3-5--5-5--|

6|-------------------------|



Riff 3:

1|-----------0-------0------------0------12*-13*-----------0-------0------------0-----

2|---------0---0---0---0--------0---0----12*-------------0---0---0---0--------0---0---

http://www.coveralia.com/acordes/ausencia-horcas.php

3|-------0-------0------------0-------0--12*-----------0-------0------------0-------0-

4|-----9--------------------7-----------0------------9--------------------7-----------

5|---7--------------------5------------------------7--------------------5-------------

6|-0---------------------------------------------0------------------------------------



---------0--------------|

-------0---0------------|

-----0-------0----------|

---5-----------0--------|

-3----------------------|

------------------------|



Riff 4:

1|-------------------------|

2|-------------------------|

3|-------------------------|

4|-9-7-8--9-9--7-5-7--7-7--|

5|-7-5-7--7-7--5-3-5--5-5--|

6|-------------------------|



Solo: ?



El final es con intro

El tema no me gusta mucho pero se

los paso para sacarlo

Letra subida por: Anónimo

Discos en los que aparece este acorde: Horcas

El acorde de Ausencia de Horcas es una versión de la canción original realizada por colaboradores/usuarios de Coveralia.

¿Has encontrado algún error en esta página? Envíanos tu corrección del acorde