música
Buscador

Acorde de Atrevida - Tommy Olivencia

Letra de Atrevida

1) --------------------------------|----00--------------------------|

2) 03------------------00--00------|--------------------------------|

3) --------------------------------|------------------------02--02--|

4) --------------------------------|--------------------------------|

5) --------------------------------|--------------------------------|

6) --------------------------------|--------------------------------|



1) --------------------------------|----00------------------02--03--|

2) 03------------------00--00------|--------------------------------|

3) --------------------------------|--------------------------------|

4) --------------------------------|--------------------------------|

5) --------------------------------|--------------------------------|

6) --------------------------------|--------------------------------|



D Bm Em A

1) 05--02------------------02--03--|------------------------02------|

2) --------05--03------05----------|----05--03--02--------------03--|

3) --------------------------------|--------------------------------|

4) --------------------------------|--------------------------------|

5) --------------------------------|--------------------------------|

6) --------------------------------|--------------------------------|



D Bm A

1) 02--------------------------00--|----05--05------05--05----------|

2) ----03--02--00------02--03------|----02--02------02--02----------|

3) --------------------------------|----02--02------02--02----------|

4) --------------------------------|----02--02------02--02----------|

5) --------------------------------|----00--00------00--00----------|

6) --------------------------------|--------------------------------|



1) --------------------------------|----00--------------------------|

2) 03------------------00--00------|--------------------------------|

3) --------------------------------|------------------------02--02--|

4) --------------------------------|--------------------------------|

5) --------------------------------|--------------------------------|

6) --------------------------------|--------------------------------|



1) --------------------------------|----00--------------------------|

2) 03------------------00--00------|--------------------------------|

3) --------------------------------|------------------------02--02--|

4) --------------------------------|--------------------------------|

5) --------------------------------|--------------------------------|

6) --------------------------------|--------------------------------|



D

1) --------------------------------|

2) 33----------33------------------|

3) --------22----------------------|

4) 00--04--------------------------|

5) --------------------------------|

6) --------------------------------|







G G G#m7b5 D9 D9/G#

Oye bien, no le des tu corazón a nadie

G G G#m7b5 D9 C4

yo no sé, si tu sabes que toda mi vida

Bm Em A D C#

se quedó prendida en tu corazón, atrevida.

F#m C#m F#m

Jugaste con mi amor en un instante sereno de tu querer

C#m F#m

después que me enseñaste a vivir en el seno de tu querer

A (Con Riff 1)

http://www.coveralia.com/acordes/atrevida-tommy-olivencia.php

y ahora atrevida reprochas mi vida no puede ser.



Oye bien no le des tu corazón a nadie

yo no se si tu sabes que toda mi vida

se quedó prendida en tu corazón, atrevida...

~

Oye bien no le des tu corazón a nadie

yo no se si tu sabes que toda mi vida

se quedó prendida en tu corazón atrevida...



Coro:



Gmaj7 Dmaj7 A13 A7 D9 2x



Gmaj7 Dmaj7 A13 A7 D9

No le des tu corazón a la atrevida.



Gmaj7 Dmaj7

Me voy pal pueblo, hoy es mi día,

A13 A7 D9

yo me voy a desquitar todo lo que tu me hacías.



Y yo te digo negrito que no le des ni un poquito,

esa negrita es tan mala, a ti te lleva la vida.



Atrevida así eres tu, me acuerdo de aquella tarde,

que mi corazón te dí y me pagaste mal cobarde.



Te fuiste pa'Venezuela y me pagaste con traición,

y a mi me dijo te lo digo mira que Oscar D'León.

~

Y con eso que tu cuentas, a ti no te va durar

en Panamá tu te encuentras con "Mano de Piedra" Durán.



Y por ser perversa y mala, te digo en tu caminar

mulata negra, a ningún lao vas a llegar.



A donde vayas, tu no la lleves, es perversa y mala

por eso Evelio ya no la quiere.



--------------------------------------------------------------------



Riff 1



1) 05------------------03--05------|----05--------------------------|

2) --------------------------------|--------05----------------------|

3) --------------------------------|------------02------------------|

4) --------------------------------|--------------------------------|

5) --------------------------------|--------------------------------|

6) --------------------------------|--------------------------------|



1) 05--05--------------03--05------|----05--05------05--05----------|

2) --------------------------------|--------------------------------|

3) --------------------------------|--------------------------------|

4) --------------------------------|--------------------------------|

5) --------------------------------|--------------------------------|

6) --------------------------------|--------------------------------|



1) 050305--------------05----------|

2) --/---------------------------|

3) -------------------------------|

4) --------------------------------|

5) --------------------------------|

6) --------------------------------|

Letra subida por: Anónimo

El acorde de Atrevida de Tommy Olivencia es una versión de la canción original realizada por colaboradores/usuarios de Coveralia.

¿Has encontrado algún error en esta página? Envíanos tu corrección del acorde