música
Buscador

Acorde de Atado A Un Sentimiento - Miguel Mateos

Letra de Atado A Un Sentimiento

Los acordes son:

D Daug5 G A B C#

X00232 X00332 320033 X02220 X2444X X4666X



Hay que ritmear con tecnica de palm muting (oigan la grabacion).

Tambien hay una pequnia figura arpegiada que va asi:



E 2-2-3-2---2

B 3------3--3

G 2-------2-3

D -----------

A -----------

E -----------



D Daug5 G

Te quiero, te extranio

A D Daug5

nada es igual al ayer

G A

oh oh oh nada oh no



D Daug5 G A D

Daug5 G

Te espero, te deseo

A D Daug5

como una roca espera al mar

http://www.coveralia.com/acordes/atado-a-un-sentimiento-miguel-mateos.php

G A D

y te necesito oh no

Daug5 G A D Daug5

y vivo atado a un sentimiento carnal

G A G

atado a tu luna oh no

A B

Yo puedo tocar el fuego

C#

puedo hasta quemarme entero

G A

pero no me pidas que te deje de amar.



< solo >



E 5-3-2-3-2-0-2-3-5-3-2-3-2-0-5-3-2-3-2

B -------------------------------------

G -------------------------------------

D -------------------------------------

A -------------------------------------

E -------------------------------------







Letra subida por: Anónimo

Discos en los que aparece este acorde: Salir Vivo , Grandes Exitos , Coctel , Primera Fila , , Primera Fila (Edicion Especial) , Rock Latino

El acorde de Atado A Un Sentimiento de Miguel Mateos es una versión de la canción original realizada por colaboradores/usuarios de Coveralia.

¿Has encontrado algún error en esta página? Envíanos tu corrección del acorde