música
Buscador

Acorde de Asesinos - Horcas

Letra de Asesinos

Riff 1 intro

|---------------|---------------|---------------|------------------|

|---------------|---------------|---------------|------------------|

|-9-7-9-7-9-7-9-|-7-5-7-5-7-5-7-|-9-7-9-7-9-7-9-|-11-9-11-13-11-13-| X4

|---------------|---------------|---------------|------------------|

|---------------|---------------|---------------|------------------|

|---------------|---------------|---------------|------------------|



Riff 2

|-----------------------------------------------------------------|

|-----------------------------------------------------------------|

|-----------------------------------------------------------------|Guit1x4

|7-------7-------5-------5-------7-------9-------11-11--11--11--11|

|5-5-5-5-5-5-5-5-3-3-3-3-3-3-3-3-5-5-5-5-7-7-7-7-9---9---9---9---9|

|-----------------------------------------------------------------|



Guit2x2 (las ultimas 2 de la guitarra 1)

|-----------------------------------------------------------------|

|-----------------------------------------------------------------|

|-----------------------------------------------------------------|

|7-7-7-7-7-7-7-7-5-5-5-5-5-5-5-5-7-7-7-7-9-9-9-9-11-11--11--11--11|

|5-5-5-5-5-5-5-5-3-3-3-3-3-3-3-3-5-5-5-5-7-7-7-7--9--9---9---9---9|

|-----------------------------------------------------------------|





(SOL5 - FA5#) - (FA5# - FA5) - (FA5 - MI5) X2



Riff 3

|----------------------------------------|

|----------------------------------------|

|----------------------------------------|

|----------------------------------------|

|----------------------------------------|

|-0000--0-1-0000-0-3-0000-0-4-00-3-00-1--|



Riff 4

|-----------------|

|-----------------|

|-------7-77-8-7--|

|-------7-77-8-7--|

|-------5-55-6-5--|

http://www.coveralia.com/acordes/asesinos-horcas.php

|-00000-----------|



Riff 5

|-----------------------------------|

|-----------------------|-----------|

|-----------------------|-----------|

|--------------------X3-|-----------|

|-55555555555-5h6-5h6---|-6666-8888-|

|-----------------------|-----------|









Riff 3

Vos sabras que venis a buscar

no creo que mientas si es tu necesidad

asi te manejan los que tienen la torta

son unas ratas que tenes que eliminar



Riff 4

te dominan

te asesinan

y despues te olvidas?



Riff 3

vos queres pero no lo intentas

si queres la mierda se ira

asi ellos creen que te estan eliminando

pero no saben ellos que algun dia caeran



Riff 5



Riff 4

te dominan

te asesinan

y despues te olvidas?

te olvidas...

te dominan

te asesinan

y despues...hijos de puta

Letra subida por: Anónimo

Discos en los que aparece este acorde: Asesino , La Maldicion Continua

El acorde de Asesinos de Horcas es una versión de la canción original realizada por colaboradores/usuarios de Coveralia.

¿Has encontrado algún error en esta página? Envíanos tu corrección del acorde