música
Buscador

Acorde de As You Wish - Alesana

Letra de As You Wish





Tuning: EADGBe





Chords used in this song:





E: 022100

F: 133211

G: 320003

A: x02220

Am: x02210

A#: x13331

C: x32010

Dm: xx0231







Intro





Am - F - Dm - F



Am





Verse





F G

Life is meaningless without you

Am Am F

Love can be such beautiful torture

G

My heart breaks as I long for you

Am Am

Love can be such lovely torture





Chorus





A# C Dm Dm A#

I will climb the hills, draw my sword

C Dm Am

And take down anyone who tries to stand in front of me

A# C Dm

Please know I'll never run away

Dm

Without you in my arms





A# C Dm

One day lovers will dream of

Dm C

This undying kiss

A# C Dm Dm C

Not of Romeo or Jul - i - et

A# C Dm Dm C

Stories told of

A#

Our love will never die





Verse

"I've slain the most unholy things..."

1.

e|-0~------------------------0~--------------------0~------------------------------------|

B|-------------------1---4~------------------1~--------------------1~------------1~------|

G|-----2--2--2~----2---2---------2--2--2~--------------2--2--2~--------1~------------1~--|

D|---------------------------------------------------------------------------------------|

A|---------------------------------------------------------------------------------------|

E|---------------------------------------------------------------------------------------|



"I've braved the cold and lonely seas..."

2.

e|-0~------------------------0~--------------------0~------------------------------------|

B|-------------------1---4~------------------1~--------------------1~--------------------|

G|-----2--2--2~----2---2---------2--2--2~--------------2--2--2~--------1~----------------|

D|---------------------------------------------------------------------------------------|

A|---------------------------------------------------------------------------------------|

E|---------------------------------------------------------------------------------------|







Am

I've slain the most unholy things

Am F

I've endured such terrific pain

E

Finally I'll feel your caress again



Am

I've braved the cold and lonely seas

Am F

I have prevailed against the odds

E

Then again





Chorus





A# - C - Dm - Dm

A# - C - Dm - Am

A# - C - Dm - Dm

http://www.coveralia.com/acordes/as-you-wish-alesana.php

A# - C - Dm - Dm - C

A# - C - Dm - Dm - C

A# - C - Dm - Dm - C

A#





I will climb the hills, draw my sword

And take down anyone who tries to stand in front of me

Please know I'll never run away

Without you in my arms



One day lovers will dream of

This undying kiss

Not of Romeo or Juliet

Stories told of

Our love will never die





Bridge





A Dm

Will you forgive what I've done

C

To give you four white horses

A# Dm

Will you forgive what I've done

C

To give you four white horses

A# Dm

Will you forgive what I've done

C

To give you four white horses

A# Dm

Will you forgive what I've done

C

To give you four white horses

A# A

Will you forgive what I've done



To give you...





"Will you forgive what I've done..."

3.

e|-1~----------------------------------------------------------------0---0---0---0---|

B|-3~----------------2---2---2---2---3---3---3---3---4---4---4---4-------------------|

G|-3~------------------2---2---2---2---2---2---2---2---2---2---2---2---2---2---2---2-|

D|-3~--------------------------------------------------------------------------------|

A|-1~--------------------------------------------------------------------------------|

E|-----------------------------------------------------------------------------------|





Chorus





A# - C - Dm - Dm - C

A# - C - Dm - Dm - C

A# - C - Dm - Dm - C





One day lovers will dream of

This undying kiss

Not of Romeo or Juliet

Stories told of







Outro





A# C Dm

Our love will never die...





Lyrics:





Life is meaningless without you

Love can be such beautiful torture

My heart breaks as I long for you

Love can be such lovely torture



I will climb the hills, draw my sword

And take down anyone who tries to stand in front of me

Please know, I'll never run away

Without you in my arms



One day lovers will dream of

This undying kiss

Not of Romeo or Juliet

Stories told of

Our love will never die...



I've slain the most unholy things

I've endured such terrific pain

Finally I'll feel your caress again

I've braved the cold and lonely seas

I have prevailed against the odds

Then again...



Will you forgive what I've done

To give you four white horses







Letra subida por: Anónimo

Discos en los que aparece este acorde: Where Myth Fades To Legend

El acorde de As You Wish de Alesana es una versión de la canción original realizada por colaboradores/usuarios de Coveralia.

¿Has encontrado algún error en esta página? Envíanos tu corrección del acorde