música
Buscador

Acorde de Arrebato - Extremoduro

Letra de Arrebato

        



A G

E||---------------------------------------||

B||-----5p4------5p4------5p4---4p2-------||

G||--2--------2--------2-------------2-4--|| se repite

D||---------------------------------------|| 2 veces

A||---------------------------------------||

E||---------------------------------------||



A G A G

E||-------------------------------------------------||

B||-------------------------------------------------||

G||--4--7p4-7-7p4-7--2-4---4-7p4-7-7p4-7--2br--0-2--|| se repite

D||-------------------------------------------------|| 2 veces

A||-------------------------------------------------||

E||-------------------------------------------------||







E||------------------------------------------------||

B||------------------------------------------------||

G||------------------------------------------------||

D||--7---x---7--7---x---7----5---x---5--5---x---5--||

A||--7---x---7--7---x---7----5---x---5--5---x---5--||

E||--5---x---5--5---x---5----3---x---3--3---x---3--||

Fue por ti, por tu luz el dia que te conoci

se me abrio el corazon solo vivo para ti.



E||------------------------------------------------||

http://www.coveralia.com/acordes/arrebato-extremoduro.php

B||------------------------------------------------||

G||--6---------------4-----------2-----------------||

D||--7---------------5-----------3-----------------||

A||--7---------------5-----------3-----------------||

E||--5---------------3-----------1-----------------||

Desde entonces como brilla el sol!





Fue un plis-plas ¿qué paso?

no me dijiste ni adios

¿dónde esta tu calor

tu mirada y tu pasión?

Desde entonces ya no sale el sol!



Si te vas nunca mas

vas a poder encontrar

lo que yo un dia te di

sabes bien no fue fingir.

Desde entonces ya no quiero sol!



Desde aquel dia fatal

todo me parece mal

nunca mas volvere

a querer sentirme bien.

Desde entonces ya no quiero sol!







Letra subida por: Anónimo

El acorde de Arrebato de Extremoduro es una versión de la canción original realizada por colaboradores/usuarios de Coveralia.

¿Has encontrado algún error en esta página? Envíanos tu corrección del acorde