música
Buscador

Acorde de Argentina, Tus Hijos - Horcas

Letra de Argentina, Tus Hijos

Intro:

( F# / Em // B / C / B / G / A / G ) x4 B



F# / Em / B / C / B / G / A / G



Estalla un paro general

El pueblo ya no aguanta más

Reunión en la plaza central

La crisis nos inundará



B G C#/D/E/B G C#/D/E

Argentina, tus hijos ya no pueden más,

B G C#/D/E/B G C#/D/E

Argentina, tus hijos mendigan el pan.





Intentan sobrevivir

Trabajo no hay en el país

Piensan en la olla popular

Los cerdos se las tirarán.



B G C#/D/E/B G C#/D/E

Argentina, tus hijos ya no pueden más,

B G C#/D/E/B G C#/D/E

Argentina, tus hijos mendigan el pan.





Base 2:

B D A

1|-------------|-----------|-------------|-----------|

|-------------|-----------|-------------|-----------|

|-----0-4~0---|-----0-4~0-|-----0-4~0---|-----0-4~0-|

|---4-------4-|---4-------|---4-------4-|---4-------|

|-2-----------|-2---------|-2-----------|-2---------|

6|-------------|-----------|-------------|-----------|



1|-------2-----3-----2-----|--------------------------|

|-----3---3-----3-----3---|-------2------------2-----|

|-2-2-------2-----2-----2-|-----2---2--------2---2---|

|-0-----------------------|-2-2-------2---2-2------2-|

|-------------------------|-0-------------0----------|

6|-------------------------|--------------------------|





http://www.coveralia.com/acordes/argentina--tus-hijos-horcas.php

SOLO:

B

1|---|--------------------------|--------------------------------------------------------|

|---|--------------------------|--------------------------------------------------------|

|-4-|-9/(11)\9-9~7-------------|-4---7\6---9\7---9---9/11---11/12\11---11\9---7/9\7--4--|

|-4-|--------------9~7~9-7~9~7-|-4---7\6---9\7---9---9/11---11/12\11---11\9---7/9\7--4--|

|-2-|--------------------------|-2---5\4---7\5---7---7/9-----9/10\9-----9\7---5/7\5--2--|

6|---|--------------------------|--------------------------------------------------------|



Nos muestran su falsedad

Los malditos que gobiernan, que gobiernan...



1|-5/(7)---------------------------------------------------------|

|---------------------------------------------------------------|

|--------4---7\6---9\7---9---9/11---11/12\11---11\9---7/9\7--4--|

|--------4---7\6---9\7---9---9/11---11/12\11---11\9---7/9\7--4--|

|--------2---5\4---7\5---7---7/9-----9/10\9-----9\7---5/7\5--2--|

6|---------------------------------------------------------------|





Escapan a la verdad

Cuando el pueblo se revela, se revela...



B

YAAAAAAAAAAAAAHHHH!!!



B / A / B / D / C# / D / C# / F# (Base 3 para el 2do sólo)



F# / Em / B / C / B / G / A / G



Estalla un paro general

El pueblo ya no aguanta más

Reunión en la plaza central

La crisis nos inundará



B G C#/D/E/B G C#/D/E

Argentina, tus hijos ya no pueden más,

B G C#/D/E/B G C#/D/E

Argentina, tus hijos mendigan el pan.



( F# / Em / B / C / B / G / A / G )x X B



E / D / E / D // G // ( B / A / B / A ) x4 (última vez con Stacato)

Letra subida por: Anónimo

Discos en los que aparece este acorde: Vence , Horcas Vive

El acorde de Argentina, Tus Hijos de Horcas es una versión de la canción original realizada por colaboradores/usuarios de Coveralia.

¿Has encontrado algún error en esta página? Envíanos tu corrección del acorde