música
Buscador

Acorde de Arde Madrid - Mikel Erentxun

Letra de Arde Madrid

____ acordes ____________

| |

| F: 133211 |

| C: 032010 |

| Dm: 000231 |

| A#: 113331 |

| Gm: 355333 |

| D#: xx1343 |

|_______________________|







[intro]:

F-||1-1-1-1-1-1-1-1|1-1-1-1-1-1-1-1|1-1-1-1-1-1-1-1|

B-||1-1-1-1-1-1-1-1|0-0-0-0-0-0-0-0|---------------|

G-||---------------|---------------|3-3-3-3-3-3-3-3|

D-||---------------|---------------|---------------|

A-||---------------|---------------|---------------|

F-||---------------|---------------|---------------|





F C

Ven, y síguenos

Dm A#

hay asuntos que resolver

F C

Oh, ven, y búscanos

Dm A#

en la calle revolución





Gm F C

No somos cheques al portador,

Gm Dm C

no hay precio ni condición



F C

Arde Madrid

Dm A#

Hazte sentir

Gm F C

Arden Los Clash

F C Dm

en el dial

A# C

Arde el poder

F +[intro2]

si escucha tu voz



[intro2]:

F-||1-1-1-1-1-1-1-1|1-1-1-1-1-1-1-1|1-1-1-1-1-1-1-1|1-1-1-1-1-1-1-1|

B-||1-1-1-1-1-1-1-1|0-0-0-0-0-0-0-0|---------------|---------------|

G-||---------------|---------------|3-3-3-3-3-3-3-3|2-2-2-2-2-2-2-2|

D-||---------------|---------------|---------------|---------------|

A-||---------------|---------------|---------------|---------------|

F-||---------------|---------------|---------------|---------------|





F C

Sal, decídete

Dm A#

en tu casa ¿que vas a hacer?

F C

Sal, ven hasta aquí

Dm A#

la marea te guiará





http://www.coveralia.com/acordes/arde-madrid-mikel-erentxun.php

Gm F C

No hay banderas que seguir (No hay banderas que seguir)

Gm Dm C

sólo una vida que vivir



F C

Arde Madrid

Dm A#

Hazte sentir

Gm F C

Arden Los Clash

F C Dm

en el dial

A# C

Arde el poder





D# A# F

¿Nadie les informó

D# A# F

de que en nuestro corazón

Dm C A#

bombeaba un fuego lento

C

que con los días

C

les quemaría?





F C

Arde Madrid

Dm A#

Hazte sentir

Gm F C

Arden Los Clash

F C Dm

en el dial

A# C

Arde el poder





F C

Arde Madrid (arde Madrid)

Dm A#

Hazte sentir

Gm F C

Arden Los Clash

F C Dm

en el dial

A# C

Arde el poder

F

en tu voz





[final]:

F

F-||1-1-1-1-1-1-1-1|1-1-1-1-1-1-1-1|1-1-1-1-1-1-1-1|-1--------------|

B-||1-1-1-1-1-1-1-1|0-0-0-0-0-0-0-0|---------------|-1--------------|

G-||---------------|---------------|3-3-3-3-3-3-3-3|-2--------------|

D-||---------------|---------------|---------------|-3--------------|

A-||---------------|---------------|---------------|-3--------------|

F-||---------------|---------------|---------------|-1--------------|







Letra subida por: Anónimo

Discos en los que aparece este acorde: El Corredor De La Suerte , , Tres Noches En El Victoria Eugenia

El acorde de Arde Madrid de Mikel Erentxun es una versión de la canción original realizada por colaboradores/usuarios de Coveralia.

¿Has encontrado algún error en esta página? Envíanos tu corrección del acorde