música
Buscador

Acorde de Aquela Paz - Charlie Brown Jr.

Letra de Aquela Paz

Tom: D#





Intro|



Riff 1 Riff 2



"lembrando que a afinação é toda em bemol"





E G# D#

e|--------------------------------------------| e|---------|

B|--------------------------------------------| B|---------|

G|--------------------------------------------| G|---------|

D|------4---4----4---4--6--4---4---4---4------| D|------4--|

A|----7---7----7---7---------6---6---6--------| A|--7-7----|

E|--0-----------------------------------------| E|---------|



___



A Vida é feita de atitudes nem sempre descentes |



| Riff 2

não lhes julgam pela razão mas pelo seus antecedentes ___|

E G#

É quando eu volto a me lembrar do que eu pensava nem ter feito

D#

Vem me traz aquela paz

E G#

Você procura a perfeição, eu tenho andado sobre efeito

D#

posso te dizer que já não aguento mais

E G#

Desencana não vou mudar por sua causa não tem jeito

D# E G# D#

Quem é que decide o que é melhor pra minha vida agora?

____

A# G# D# |

Ouvi dizer que só era triste quem queria |

A# G# D# | 2x

Ouvi dizer que só era triste quem queria |

____|

E

Lidei com coisa que jamais entenderei

http://www.coveralia.com/acordes/aquela-paz-charlie-brown-jr-.php

G# D#

Ah, se eu pudesse estar em paz,

E

me livrar do pesadelo de vê-lo nesse estado

G# D#

e não poder ajudá-lo, não

E G# D#

Triste é poder mudar, porque estais tão revoltado irmão

____

A# G# D# |

Ouvi dizer que sé era triste quem queria |

A# G# D# | 2x

Ouvi dizer que só era triste quem queria |

____|

Solo|



e|------------------------------------------------------------------2-2-2-2-2-2-

B|------------10/12----5-8--------------------------------2-2-2-2-2-------------

G|----------9--------------7--9p7---------------3-3-3-3-3-----------------------

D|--9-10-12-----------------------9----3-3-3-3-3--------------------------------

A|------------------------------------------------------------------------------

E|------------------------------------------------------------------------------





e|--8h10p8-7--------------------------------------------------------------^^---|

B|-----------8h10-8-----8-------------------8/10-8/10---------------------11---|

G|--------------------5----5-7-5--9-7-5---5------------5-7-5--9-7-5--5/10------|

D|-----------------------------------------------------------------------------|

A|-----------------------------------------------------------------------------|

E|-----------------------------------------------------------------------------|





A# G# D# ____

Ouvi dizer que sé era triste quem queria |

A# G# D# | 2x

Ouvi dizer que só era triste quem queria ____|



____

A Vida é feita de atitudes descentes |

| Riff 2

não lhes julgam pela razão, mas pelo seus antecedentes! ____|



Cuidado com seus passos!

Discos en los que aparece este acorde: Imunidade Musical , Transpiraçao Continua Prolongada

El acorde de Aquela Paz de Charlie Brown Jr. es una versión de la canción original realizada por colaboradores/usuarios de Coveralia.

¿Has encontrado algún error en esta página? Envíanos tu corrección del acorde