música
Buscador

Acorde de Antes De Las Seis - Shakira

Letra de Antes De Las Seis

C                 Am

No actúes tan extraño

G F

Duro como una roca

C Am

Si te mostré pedazos de piel

G F

Que la luz del sol aun no toca



C Am

Y tantos lunares

G F

Que ni yo misma conocía

C Am

Te mostré mi fuerza bruta

G F

Mi talón de Aquiles, mi poesía.



F G Am

¿Qué harás?

F C G

Sólo una historia más

F G Am

¿Qué haré

F C G

Si no te vuelvo a ver?



Oh, oh



RITMO: BAIXO, BAIXO, CIMA, CIMA, BAIXO, CIMA...

F G Am

Si desde el día en que no estás

G

Vi la noche llegar mucho antes de las seis

F G Am

Si desde el día en que no estás

G

Vi la noche llegar mucho antes de las seis

Mucho antes



C Am

No dejes el barco

G F

Tanto antes de que zarpemos

C Am

Hacia alguna isla desierta

G F

Y después, después veremos



C Am

Si me ves desarmada

http://www.coveralia.com/acordes/antes-de-las-seis-shakira.php

G F

Por qué lanzas tus misiles?

C Am

Si ya conoces mis puntos cardinales

G F

Los más sensibles y sutiles



F G Am

¿Qué harás?

F C G

La vida lo dirá

F G Am

¿Qué haré

F C G

Si no te vuelvo a ver?



Oh, oh



F G Am

Si desde el día en que no estás

G

Vi la noche llegar mucho antes de las seis

F G Am

Si desde el día en que no estás

G F

Vi la noche llegar mucho antes de las seis



G Am

Ah, ah

G

Ah

E|----------0-3-5-8-5-5-3-5-3-0-3--------------------------

B|-----1—3------------------------5-3-5-3-1-3--------------

G|---2-----------------------------------------2-----------

D|--3------------------------------------------------------

A|---------------------------------------------------------

E|---------------------------------------------------------



E|----------0-3-5-8-5-5-3-5-3-0-3--------------------------

B|-----1—3------------------------5-3-5-3------------------

G|---2-----------------------------------------------------

D|---------------------------------------------------------

A|---------------------------------------------------------

E|---------------------------------------------------------

[t/ab#inicio]



G

Mucho antes de las seis

C

Mucho antes

El acorde de Antes De Las Seis de Shakira es una versión de la canción original realizada por colaboradores/usuarios de Coveralia.

¿Has encontrado algún error en esta página? Envíanos tu corrección del acorde