música
Buscador

Acorde de Another Way To Die (Jack White & Alicia Keys) - Alicia Keys

Letra de Another Way To Die (Jack White & Alicia Keys)

E5: 02xxxx  or 0x2xxx 

B5: x24xxx 7x9xxx

G5: 35xxxx 3x5xxx

A5: x02xxx 5x7xxx





Intro: Horns

e|--------------------------------------------------|

B|--------------------------------------------------|

G|--------------------------------------------------|

D|-------------------------------------999999-------| x3

A|---------------5~-------------7~~----777777-------|

E|--0--2b3b2--0-----0--2b3b2-0---------000000-------|



Piano: Guitar Riff B:

e|--7--7--7--7--7--7-------| e|------------------------|

B|-------------------------| B|------------------------|

G|-------------------------| G|------------------------|

D|-------------------------| D|------------------------|

A|---------------~---------| A|------------------------|

E|---------------~---------| E|--2-3-5-2-3-5-0~--------|



Guitar Riff A:

e|-----------------|

B|-----------------|

G|-----------------|

D|-----------------| x4

A|-----------------|

E|----0-3--0-------|



B5 G5 E5 x2



Guitar Verse: Piano Fill:

e|-------------------------| e|------5-4---------------|

B|-------------------------| B|----3-----5-------------|

G|-------------------------| G|--4---------5-4---------|

D|----4--------------------| D|------------------------|

A|----2------5------2------| A|------------------------|

E|-----------3------0------| E|------------------------|



B5 G5 E5

Another ringer with the slick trigger finger for her majesty

B5 G5 E5

Another one with the golden tongue voice and then your fantasy

B5 G5 E5

Another bill from a killer turned a thrill into a tragedy, yeah



Chorus:

e|-------------------------------------------|

B|-------------------------------------------|

G|-------------------------------------------|

D|----4-4------------------------------------|

A|----2-2------5-5------7-7------7-7--7-7----|

E|-------------3-3------5-5------5-5--5-5----|



B5 G5

A door left open, A woman walking by

A5 A5

A drop in the water, A look in your eye

A5 B5 G5

A phone on the table, A man on your side

A5

Or someone that you think that you can trust

A5 A5 E5

Is just another way to die



Guitar Riff A x2

B5 G5 E5 (Piano fill)

B5 G5 E5

Guitar Riff A x2



B5 G5 E5

Another tricky little gun giving solace to the one



That will never see the sunshine

http://www.coveralia.com/acordes/another-way-to-die--jack-white-y-alicia-keys--alicia-keys.php

B5 G5 E5

Another inch of your life sacrificed for your brother, in the nick of time

B5 G5 E5

Another dirty money heaven sent honey turning on a dime, well



Chorus



Piano riff:

e|------3-2---------5-4--------------|

B|----3-----3-2---3-----5------------|

G|--4-----------4---------5-4--------|

D|-----------------------------------|

A|-----------------------------------|

E|-----------------------------------|



Hey, you got the feelin', yeah



e|--------------------------------------------------|

B|--------------------------------------------------|

G|--------------------------------------------------|

D|--7-7-7-7-----------------5-4---------------------|

A|-----------------------5------5--7-7-7-7----------|

E|----------5-5-5-5---7--------------------0-0-0-0--|



e|----------------------------------------------------------------|

B|----------------------------------------------------------------|

G|----------------------------------------------------------------|

D|--------5--4-----7-7-7-7----------------5-4---------------------| x3

A|-----5--------5----------------------5------5--7-7-7-7----------|

E|--7---------------------5-5-5-5---7--------------------0-0-0-0--|



Another baby

Oh oh oh oh oh x4



e|----------------------------------------------------------|

B|----------------------------------------------------------|

G|----------------------------------------------------------|

D|--------5--4-----7-7-7-7----------------5-4---------------|

A|-----5--------5----------------------5------5--7~~--------|

E|--7---------------------5-5-5-5---7------------0~~--------|



Guitar Riff A x2

B5 G5 E5 x2



Guitar Solo:

e|---11b12b11------------------------------------------------|

B|-----------12----------x11b12---x11b12---------------------|

G|-----------------------------------------------------------|

D|-----------------------------------------------------------|

A|-----------------------------------------------------------|

E|-----------------------------------------------------------|



e|-----------------------------------------------------------|

B|----x11b12-------------------------------------------------|

G|-----------------------------------------------------------|

D|-----------------------------------------------------------|

A|-----------------------10-10-10-10-----------10-10-10-10v--|

E|--------------------12-------------12-----12---------------|



B5 G5 E5

Another girl with her finger on the world singing to you what you want to hear

B5 G5 E5

Another gun thrown down in surrender took away your fear

B5 G5 E5

Another man that stands right behind you looking in the mirror



Chorus



Sort 'em out baby!



Intro x8

Guitar riff B

Guitar riff A x2

Letra subida por: Anónimo

Discos en los que aparece este acorde: As I Am (The Super Edition)

El acorde de Another Way To Die (Jack White & Alicia Keys) de Alicia Keys es una versión de la canción original realizada por colaboradores/usuarios de Coveralia.

¿Has encontrado algún error en esta página? Envíanos tu corrección del acorde