música
Buscador

Acorde de Anoche Hablamos De Amor - Sergio Vargas

Letra de Anoche Hablamos De Amor



INTRO:

Gm(suave)

e|-----------8---------------------------3-|

b|---8-10-11---10-11-8-------------------3-|

g|-7--------------------7-8-10-8-7-------3-|

d|-----------------------------------8-7-5-|

a|---------------------------------------5-|

E|---------------------------------------3-|



PRE-ESTROFAS: Son arpegios.



Anoche hablamos del amor

Gm

e|-----------3-6-3-|

b|---------3-------|

g|-------3---------|

d|-----5-----------|

a|---5-------------|

E|-3---------------|



Y nos hizo llorar,

F

e|-------1---3-1----------|

b|-----1---1-----6--5-3-5-|

g|---2--------------------|

d|-3----------------------|

a|------------------------|

E|------------------------|



y nos hizo llorar

D#

e|-----------2---|

b|---------3---3-|

g|-------2-------|

d|-----4---------|

a|---5-----------|

E|-2-------------|



Y amanecimos

D

e|---------5-2---3-----|

b|-------3-----4---4-3-|

g|-----2---------------|

d|---4-----------------|

a|-2-------------------|

E|---------------------|



Con los ojos hinchados

Gm

e|-------------------10-s-12-|

b|---------3-----3-----------|

g|-------3---3-----3---------|

d|-----5---------------------|

a|---5-----------------------|

E|-3-------------------------|





Pero enamorados

F

e|-----1---1----7-s-8-|

b|-------1---1--------|

g|---2----------------|

d|-3------------------|

a|--------------------|

E|--------------------|



Más enamorados

D#

e|-----------3---|

b|---------2---2-|

g|-------3-------|

d|-----5---------|

a|---6-----------|

E|-3-------------|



Que cuando hacemos el amor...

D

e|-----------3---|

b|---------2---2-|

g|-------3-------|

d|-----5---------|

a|---6-----------|

E|-3-------------|



Callados… Gm

e|---------|

b|---------|

g|---------|

d|-5-------|

a|----5----|

http://www.coveralia.com/acordes/anoche-hablamos-de-amor-sergio-vargas.php

E|-------3-|



RITMO 1:

e|-----6----8----8----8----8-----10---10---10---10-|

b|---8---10---10---10---10----11---11---11---11----|

g|-7-----------------------------------------------|

d|-------------------------------------------------|

a|-------------------------------------------------|

E|-------------------------------------------------|



e|----11----11----11--15-15-14-10-|

b|-13----13----13-----------------|

g|--------------------------------|

d|--------------------------------|

a|--------------------------------|

E|--------------------------------|



ESTROFAS:

Gm

Anoche hablamos del amor

F

De las cosas que tú

D#

De las cosas que yo

D

De tantas cosas

Gm

De mis espinas y rosas

F D#

Lo discutimos, y aunque sufrimos

D Gm

Así aprendimos que está en peligro un gran amor.



ESTRIBILLO:

F

Anoche hablamos del amor

Gm

Que está en peligro que dolor

F

Anoche hablamos nos peleamos,

Gm D#

Discutimos y hasta por ahí dijimos

D

Dos tres cosas con rencor.

F

Anoche hablamos, lo aclaramos,

Gm

Lo admitimos

D#

Luego mil besos nos dimos

D

Luego hicimos el amor

Gm

Que rico hablamos



RITMO 1, ESTROFAS, ESTRIBILLO



INTERMEDIO:

Gm Gm

e|---------------------------------------------------|

b|----3-3-3--3-3-3--3-4-3-3------3-3-3--3-3-3--3-4-3-|

g|----3-3-3--3-3-3--3-3-3-3------3-3-3--3-3-3--3-3-3-|

d|----5-5-5--5-5-5--5-5-5-5------5-5-5--5-5-5--5-5-5-|

a|----------------------------5----------------------|

E|-3-------------------------------------------------|



D# F D#D# D D D#D# F

e|------------------------------5--3-3--2-2--3-3--4-|

b|----4-4-4--4-4-4--4-6-4-4-----6--4-4--3-3--4-4--5-|

g|----3-3-3--3-3-3--3-3-3-3-----5--3-3--2-2--3-3--4-|

d|----5-5-5--5-5-5--5-5-5-5-----7--5-5--4-4--5-5--6-|

a|-6----------------------------8--6-6--5-5--6-6--7-|

E|------------------------------5--3-3--2-2--3-3--5-|



Gm Gm

e|-------------------------------------------------|

b|----3-3-3--3-3-3--3-4-3-3------3-3-3--3-3-3--3-4-|

g|----3-3-3--3-3-3--3-3-3-3------3-3-3--3-3-3--3-3-|

d|----5-5-5--5-5-5--5-5-5-5------5-5-5--5-5-5--5-5-|

a|----------------------------5--------------------|

E|-3-----------------------------------------------|





e|-3-12-8-|

b|--------|

g|--------|

d|--------|

a|--------|

E|--------|

Letra subida por: Anónimo

Discos en los que aparece este acorde: Vete Y Dile

El acorde de Anoche Hablamos De Amor de Sergio Vargas es una versión de la canción original realizada por colaboradores/usuarios de Coveralia.

¿Has encontrado algún error en esta página? Envíanos tu corrección del acorde