música
Buscador

Acorde de Amigos de guardia - Mikel Erentxun

Letra de Amigos de guardia

____ acordes ____________

| |

|[cejilla en 1er traste]|

| |

| G: 320003 |

| Am: 002210 |

| C: 032010 |

| D: 000232 |

| Em: 022000 |

| G7: 320001 |

|_______________________|





[intro]:



G C G (x2)





G A

F-||3----2--2-0---------|3----2--2-0---------|

B-||---------------3----|---------------3----|

G-||--------------------|--------------------|

D-||--------------------|--------------------|

A-||--------------------|--------------------|

F-||--------------------|--------------------|



D G

F-||3----2--2-0---------|3----2--2-0---------|

B-||---------------3----|---------------3----|

G-||--------------------|--------------------|

D-||--------------------|--------------------|

A-||--------------------|--------------------|

F-||--------------------|--------------------|





G Am

Amigos de una pieza, que nunca pedirán nada a cambio,

C D G

que aparecen esos días en que tú quieres desaparecer.

G Am

Hoy resisten por mí, y mañana me la juego yo por ellos.

C D Em

Ellos saben quienes son, ellos saben como soy mejor que yo.





C D

Cuando la vida tira a matar

G D Em

hay amigos de guardia que saben frenar

C D G

las balas que tú no puedes parar.





[intro]





G Am

Amigos para reir y para compartir las tormentas,

C D G

que saben escuchar si no tienes nada más que decir,

G Am

que te recogen al caer y te ayudan a volar sin turbulencias

C D Em

y que están junto a ti en la próxima estación sin llamar.





http://www.coveralia.com/acordes/amigos-de-guardia-mikel-erentxun.php

C D

Cuando la vida tira a matar

G D Em

hay amigos de guardia que saben frenar

C D G

esas balas que tú no puedes parar.







[solo]:

G Am

E-||-2s3--2sss3-3sssss7-|--2s3--2sss3-3sssss7-8s3-|

B-||--------------------|-------------------------|

G-||--------------------|-------------------------|

D-||--------------------|-------------------------|

A-||--------------------|-------------------------|

E-||--------------------|-------------------------|



D G

E-||-2s3--2sss3-3sssss7-|--2s3--------------------|

B-||--------------------|-------------------------|

G-||--------------------|-------------------------|

D-||--------------------|-------------------------|

A-||--------------------|-------------------------|

E-||--------------------|-------------------------|



G Am

E-||-2s3--2sss3-3sssss7-|--2s3--2sss3-3sssss7-8s3-|

B-||--------------------|-------------------------|

G-||--------------------|-------------------------|

D-||--------------------|-------------------------|

A-||--------------------|-------------------------|

E-||--------------------|-------------------------|



D Em

E-||-2s3--2sss3-3sssss7-|-------------------------|

B-||--------------------|-------------------------|

G-||--------------------|-------------------------|

D-||--------------------|-------------------------|

A-||--------------------|-------------------------|

E-||--------------------|-------------------------|





C D

Cuando la vida tira a matar

G D Em

hay amigos de guardia que saben frenar

C D G G7

esas balas que tú no puedes parar.



C D

Cuando la vida tira a matar

G D Em

hay amigos de guardia que saben frenar

C D G

esas balas que tú no puedes parar.





[intro]



G







Letra subida por: Anónimo

Discos en los que aparece este acorde: El Corredor De La Suerte

El acorde de Amigos de guardia de Mikel Erentxun es una versión de la canción original realizada por colaboradores/usuarios de Coveralia.

¿Has encontrado algún error en esta página? Envíanos tu corrección del acorde